  0
SECTION
  2
HEADER
  9
$ACADVER
  1
AC1018
  9
$ACADMAINTVER
 70
     0
  9
$DWGCODEPAGE
  3
ANSI_1252
  9
$INSBASE
 10
0.0
 20
0.0
 30
0.0
  9
$EXTMIN
 10
-0.5
 20
-0.5
 30
-0.5
  9
$EXTMAX
 10
5.0
 20
5.0
 30
5.0
  9
$LIMMIN
 10
-0.5
 20
-0.5
  9
$LIMMAX
 10
5.0
 20
5.0
  9
$ORTHOMODE
 70
     0
  9
$REGENMODE
 70
     1
  9
$FILLMODE
 70
     1
  9
$QTEXTMODE
 70
     0
  9
$MIRRTEXT
 70
     1
  9
$LTSCALE
 40
1.0
  9
$ATTMODE
 70
     1
  9
$TEXTSIZE
 40
0.2
  9
$TRACEWID
 40
0.05
  9
$TEXTSTYLE
  7
Standard
  9
$CLAYER
  8
0
  9
$CELTYPE
  6
ByLayer
  9
$CECOLOR
 62
   256
  9
$CELTSCALE
 40
1.0
  9
$DISPSILH
 70
     0
  9
$DIMSCALE
 40
1.0
  9
$DIMASZ
 40
0.18
  9
$DIMEXO
 40
0.0625
  9
$DIMDLI
 40
0.38
  9
$DIMRND
 40
0.0
  9
$DIMDLE
 40
0.0
  9
$DIMEXE
 40
0.18
  9
$DIMTP
 40
0.0
  9
$DIMTM
 40
0.0
  9
$DIMTXT
 40
0.18
  9
$DIMCEN
 40
0.09
  9
$DIMTSZ
 40
0.0
  9
$DIMTOL
 70
     0
  9
$DIMLIM
 70
     0
  9
$DIMTIH
 70
     1
  9
$DIMTOH
 70
     1
  9
$DIMSE1
 70
     0
  9
$DIMSE2
 70
     0
  9
$DIMTAD
 70
     0
  9
$DIMZIN
 70
     0
  9
$DIMBLK
  1

  9
$DIMASO
 70
     1
  9
$DIMSHO
 70
     1
  9
$DIMPOST
  1

  9
$DIMAPOST
  1

  9
$DIMALT
 70
     0
  9
$DIMALTD
 70
     2
  9
$DIMALTF
 40
25.4
  9
$DIMLFAC
 40
1.0
  9
$DIMTOFL
 70
     0
  9
$DIMTVP
 40
0.0
  9
$DIMTIX
 70
     0
  9
$DIMSOXD
 70
     0
  9
$DIMSAH
 70
     0
  9
$DIMBLK1
  1

  9
$DIMBLK2
  1

  9
$DIMSTYLE
  2
Standard
  9
$DIMCLRD
 70
     0
  9
$DIMCLRE
 70
     0
  9
$DIMCLRT
 70
     0
  9
$DIMTFAC
 40
1.0
  9
$DIMGAP
 40
0.09
  9
$DIMJUST
 70
     0
  9
$DIMSD1
 70
     0
  9
$DIMSD2
 70
     0
  9
$DIMTOLJ
 70
     1
  9
$DIMTZIN
 70
     0
  9
$DIMALTZ
 70
     0
  9
$DIMALTTZ
 70
     0
  9
$DIMUPT
 70
     0
  9
$DIMDEC
 70
     4
  9
$DIMTDEC
 70
     4
  9
$DIMALTU
 70
     2
  9
$DIMALTTD
 70
     2
  9
$DIMTXSTY
  7
Standard
  9
$DIMAUNIT
 70
     0
  9
$DIMADEC
 70
     0
  9
$DIMALTRND
 40
0.0
  9
$DIMAZIN
 70
     0
  9
$DIMDSEP
 70
    46
  9
$DIMATFIT
 70
     3
  9
$DIMFRAC
 70
     0
  9
$DIMLDRBLK
  1

  9
$DIMLUNIT
 70
     2
  9
$DIMLWD
 70
    -2
  9
$DIMLWE
 70
    -2
  9
$DIMTMOVE
 70
     0
  9
$LUNITS
 70
     2
  9
$LUPREC
 70
     4
  9
$SKETCHINC
 40
0.1
  9
$FILLETRAD
 40
0.5
  9
$AUNITS
 70
     0
  9
$AUPREC
 70
     0
  9
$MENU
  1
.
  9
$ELEVATION
 40
0.0
  9
$PELEVATION
 40
0.0
  9
$THICKNESS
 40
0.0
  9
$LIMCHECK
 70
     0
  9
$CHAMFERA
 40
0.0
  9
$CHAMFERB
 40
0.0
  9
$CHAMFERC
 40
0.0
  9
$CHAMFERD
 40
0.0
  9
$SKPOLY
 70
     0
  9
$TDCREATE
 40
2458075.51495515
  9
$TDUCREATE
 40
2458075.473288484
  9
$TDUPDATE
 40
2458075.515303241
  9
$TDUUPDATE
 40
2458075.473636574
  9
$TDINDWG
 40
0.0000000116
  9
$TDUSRTIMER
 40
0.0000000116
  9
$USRTIMER
 70
     1
  9
$ANGBASE
 50
0.0
  9
$ANGDIR
 70
     0
  9
$PDMODE
 70
     0
  9
$PDSIZE
 40
0.0
  9
$PLINEWID
 40
0.0
  9
$SPLFRAME
 70
     0
  9
$SPLINETYPE
 70
     6
  9
$SPLINESEGS
 70
     8
  9
$HANDSEED
  5
16F
  9
$SURFTAB1
 70
     6
  9
$SURFTAB2
 70
     6
  9
$SURFTYPE
 70
     6
  9
$SURFU
 70
     6
  9
$SURFV
 70
     6
  9
$UCSBASE
  2

  9
$UCSNAME
  2

  9
$UCSORG
 10
0.0
 20
0.0
 30
0.0
  9
$UCSXDIR
 10
1.0
 20
0.0
 30
0.0
  9
$UCSYDIR
 10
0.0
 20
1.0
 30
0.0
  9
$UCSORTHOREF
  2

  9
$UCSORTHOVIEW
 70
     0
  9
$UCSORGTOP
 10
0.0
 20
0.0
 30
0.0
  9
$UCSORGBOTTOM
 10
0.0
 20
0.0
 30
0.0
  9
$UCSORGLEFT
 10
0.0
 20
0.0
 30
0.0
  9
$UCSORGRIGHT
 10
0.0
 20
0.0
 30
0.0
  9
$UCSORGFRONT
 10
0.0
 20
0.0
 30
0.0
  9
$UCSORGBACK
 10
0.0
 20
0.0
 30
0.0
  9
$PUCSBASE
  2

  9
$PUCSNAME
  2

  9
$PUCSORG
 10
0.0
 20
0.0
 30
0.0
  9
$PUCSXDIR
 10
1.0
 20
0.0
 30
0.0
  9
$PUCSYDIR
 10
0.0
 20
1.0
 30
0.0
  9
$PUCSORTHOREF
  2

  9
$PUCSORTHOVIEW
 70
     0
  9
$PUCSORGTOP
 10
0.0
 20
0.0
 30
0.0
  9
$PUCSORGBOTTOM
 10
0.0
 20
0.0
 30
0.0
  9
$PUCSORGLEFT
 10
0.0
 20
0.0
 30
0.0
  9
$PUCSORGRIGHT
 10
0.0
 20
0.0
 30
0.0
  9
$PUCSORGFRONT
 10
0.0
 20
0.0
 30
0.0
  9
$PUCSORGBACK
 10
0.0
 20
0.0
 30
0.0
  9
$USERI1
 70
     0
  9
$USERI2
 70
     0
  9
$USERI3
 70
     0
  9
$USERI4
 70
     0
  9
$USERI5
 70
     0
  9
$USERR1
 40
0.0
  9
$USERR2
 40
0.0
  9
$USERR3
 40
0.0
  9
$USERR4
 40
0.0
  9
$USERR5
 40
0.0
  9
$WORLDVIEW
 70
     1
  9
$SHADEDGE
 70
     3
  9
$SHADEDIF
 70
    70
  9
$TILEMODE
 70
     1
  9
$MAXACTVP
 70
    64
  9
$PINSBASE
 10
0.0
 20
0.0
 30
0.0
  9
$PLIMCHECK
 70
     0
  9
$PEXTMIN
 10
-0.5
 20
-0.5
 30
-0.5
  9
$PEXTMAX
 10
5.0
 20
5.0
 30
5.0
  9
$PLIMMIN
 10
-0.5
 20
-0.5
  9
$PLIMMAX
 10
5.0
 20
5.0
  9
$UNITMODE
 70
     0
  9
$VISRETAIN
 70
     1
  9
$PLINEGEN
 70
     0
  9
$PSLTSCALE
 70
     1
  9
$TREEDEPTH
 70
  3020
  9
$CMLSTYLE
  2
Standard
  9
$CMLJUST
 70
     0
  9
$CMLSCALE
 40
1.0
  9
$PROXYGRAPHICS
 70
     1
  9
$MEASUREMENT
 70
     1
  9
$CELWEIGHT
370
    18
  9
$ENDCAPS
280
     0
  9
$JOINSTYLE
280
     0
  9
$LWDISPLAY
290
     1
  9
$INSUNITS
 70
     4
  9
$HYPERLINKBASE
  1

  9
$STYLESHEET
  1

  9
$XEDIT
290
     1
  9
$CEPSNTYPE
380
     0
  9
$PSTYLEMODE
290
     1
  9
$FINGERPRINTGUID
  2
{B7565FAB-14F0-4776-B607-AA7BA514776F}
  9
$VERSIONGUID
  2
{FAEB1C32-E019-11D5-929B-00C0DF256EC4}
  9
$EXTNAMES
290
     1
  9
$PSVPSCALE
 40
0.0
  9
$OLESTARTUP
290
     0
  9
$SORTENTS
280
   127
  9
$INDEXCTL
280
     0
  9
$HIDETEXT
280
     1
  9
$XCLIPFRAME
290
     0
  9
$HALOGAP
280
     0
  9
$OBSCOLOR
 70
   257
  9
$OBSLTYPE
280
     0
  9
$INTERSECTIONDISPLAY
280
     0
  9
$INTERSECTIONCOLOR
 70
   257
  9
$DIMASSOC
280
     2
  9
$PROJECTNAME
  1

  0
ENDSEC
  0
SECTION
  2
CLASSES
  0
CLASS
  1
ACDBDICTIONARYWDFLT
  2
AcDbDictionaryWithDefault
  3
ObjectDBX Classes
 90
        0
 91
        4
280
     0
281
     0
  0
CLASS
  1
VISUALSTYLE
  2
AcDbVisualStyle
  3
ObjectDBX Classes
 90
     4095
 91
        4
280
     0
281
     0
  0
CLASS
  1
MATERIAL
  2
AcDbMaterial
  3
ObjectDBX Classes
 90
     1153
 91
        4
280
     0
281
     0
  0
CLASS
  1
SCALE
  2
AcDbScale
  3
ObjectDBX Classes
 90
     1153
 91
        4
280
     0
281
     0
  0
CLASS
  1
TABLESTYLE
  2
AcDbTableStyle
  3
ObjectDBX Classes
 90
     4095
 91
        4
280
     0
281
     0
  0
CLASS
  1
MLEADERSTYLE
  2
AcDbMLeaderStyle
  3
ACDB_MLEADERSTYLE_CLASS
 90
     4095
 91
        4
280
     0
281
     0
  0
CLASS
  1
SUN
  2
AcDbSun
  3
SCENEOE
 90
     1153
 91
        4
280
     0
281
     0
  0
CLASS
  1
DICTIONARYVAR
  2
AcDbDictionaryVar
  3
ObjectDBX Classes
 90
        0
 91
        4
280
     0
281
     0
  0
CLASS
  1
CELLSTYLEMAP
  2
AcDbCellStyleMap
  3
ObjectDBX Classes
 90
     1152
 91
        4
280
     0
281
     0
  0
ENDSEC
  0
SECTION
  2
TABLES
  0
TABLE
  2
VPORT
  5
8
102
{ACAD_XDICTIONARY
360
128
102
}
330
0
100
AcDbSymbolTable
 70
    16
  0
VPORT
  5
29
330
8
100
AcDbSymbolTableRecord
100
AcDbViewportTableRecord
  2
*Active
 70
     0
 10
0.0
 20
0.0
 11
1.0
 21
1.0
 12
181.7082
 22
159.418307
 13
0.0
 23
0.0
 14
0.5
 24
0.5
 15
0.5
 25
0.5
 16
0.0
 26
0.0
 36
1.0
 17
0.0
 27
0.0
 37
0.0
 40
259.55625
 41
0.068412
 42
50.0
 43
546.974958
 44
-546.974958
 50
0.0
 51
0.0
 71
     0
 72
   100
 73
     1
 74
     3
 75
     0
 76
     0
 77
     0
 78
     0
281
     0
 65
     1
110
0.0
120
0.0
130
0.0
111
1.0
121
0.0
131
0.0
112
0.0
122
1.0
132
0.0
 79
     0
146
0.0
  0
VPORT
  5
119
330
8
100
AcDbSymbolTableRecord
100
AcDbViewportTableRecord
  2
L1
 70
     0
 10
0.0
 20
0.0
 11
1.0
 21
1.0
 12
181.7082
 22
159.418307
 13
0.0
 23
0.0
 14
0.5
 24
0.5
 15
0.5
 25
0.5
 16
0.0
 26
0.0
 36
1.0
 17
0.0
 27
0.0
 37
0.0
 40
259.55625
 41
0.068412
 42
50.0
 43
546.974958
 44
-546.974958
 50
0.0
 51
0.0
 71
     0
 72
   100
 73
     1
 74
     3
 75
     0
 76
     0
 77
     0
 78
     0
281
     0
 65
     1
110
0.0
120
0.0
130
0.0
111
1.0
121
0.0
131
0.0
112
0.0
122
1.0
132
0.0
 79
     0
146
0.0
  0
VPORT
  5
11A
330
8
100
AcDbSymbolTableRecord
100
AcDbViewportTableRecord
  2
L2
 70
     0
 10
0.0
 20
0.0
 11
0.5
 21
1.0
 12
0.0
 22
0.0
 13
0.0
 23
0.0
 14
0.5
 24
0.5
 15
0.5
 25
0.5
 16
0.0
 26
-1.0
 36
0.0
 17
0.0
 27
0.0
 37
0.0
 40
1571.237298
 41
0.011301
 42
50.0
 43
807.520492
 44
-807.520492
 50
0.0
 51
0.0
 71
     0
 72
   100
 73
     1
 74
     3
 75
     0
 76
     0
 77
     0
 78
     0
281
     0
 65
     1
110
0.0
120
0.0
130
0.0
111
1.0
121
0.0
131
0.0
112
0.0
122
1.0
132
0.0
 79
     0
146
0.0
  0
VPORT
  5
11B
330
8
100
AcDbSymbolTableRecord
100
AcDbViewportTableRecord
  2
L2
 70
     0
 10
0.5
 20
0.0
 11
1.0
 21
1.0
 12
0.0
 22
0.0
 13
0.0
 23
0.0
 14
0.5
 24
0.5
 15
0.5
 25
0.5
 16
1.0
 26
0.0
 36
0.0
 17
0.0
 27
0.0
 37
0.0
 40
1571.237298
 41
0.011301
 42
50.0
 43
796.265674
 44
-796.265674
 50
0.0
 51
0.0
 71
     0
 72
   100
 73
     1
 74
     3
 75
     0
 76
     0
 77
     0
 78
     0
281
     0
 65
     1
110
0.0
120
0.0
130
0.0
111
1.0
121
0.0
131
0.0
112
0.0
122
1.0
132
0.0
 79
     0
146
0.0
  0
VPORT
  5
11C
330
8
100
AcDbSymbolTableRecord
100
AcDbViewportTableRecord
  2
L3
 70
     0
 10
0.0
 20
0.5
 11
1.0
 21
1.0
 12
181.7082
 22
159.418307
 13
0.0
 23
0.0
 14
0.5
 24
0.5
 15
0.5
 25
0.5
 16
0.0
 26
0.0
 36
1.0
 17
0.0
 27
0.0
 37
0.0
 40
259.55625
 41
0.068412
 42
50.0
 43
546.974958
 44
-546.974958
 50
0.0
 51
0.0
 71
     0
 72
   100
 73
     1
 74
     3
 75
     0
 76
     0
 77
     0
 78
     0
281
     0
 65
     1
110
0.0
120
0.0
130
0.0
111
1.0
121
0.0
131
0.0
112
0.0
122
1.0
132
0.0
 79
     0
146
0.0
  0
VPORT
  5
11D
330
8
100
AcDbSymbolTableRecord
100
AcDbViewportTableRecord
  2
L3
 70
     0
 10
0.0
 20
0.0
 11
1.0
 21
0.5
 12
0.0
 22
0.0
 13
0.0
 23
0.0
 14
0.5
 24
0.5
 15
0.5
 25
0.5
 16
0.0
 26
-1.0
 36
0.0
 17
0.0
 27
0.0
 37
0.0
 40
1571.237298
 41
0.011301
 42
50.0
 43
807.520492
 44
-807.520492
 50
0.0
 51
0.0
 71
     0
 72
   100
 73
     1
 74
     3
 75
     0
 76
     0
 77
     0
 78
     0
281
     0
 65
     1
110
0.0
120
0.0
130
0.0
111
1.0
121
0.0
131
0.0
112
0.0
122
1.0
132
0.0
 79
     0
146
0.0
  0
VPORT
  5
11E
330
8
100
AcDbSymbolTableRecord
100
AcDbViewportTableRecord
  2
L4
 70
     0
 10
0.0
 20
0.5
 11
0.5
 21
1.0
 12
181.7082
 22
159.418307
 13
0.0
 23
0.0
 14
0.5
 24
0.5
 15
0.5
 25
0.5
 16
0.0
 26
0.0
 36
1.0
 17
0.0
 27
0.0
 37
0.0
 40
259.55625
 41
0.068412
 42
50.0
 43
546.974958
 44
-546.974958
 50
0.0
 51
0.0
 71
     0
 72
   100
 73
     1
 74
     3
 75
     0
 76
     0
 77
     0
 78
     0
281
     0
 65
     1
110
0.0
120
0.0
130
0.0
111
1.0
121
0.0
131
0.0
112
0.0
122
1.0
132
0.0
 79
     0
146
0.0
  0
VPORT
  5
11F
330
8
100
AcDbSymbolTableRecord
100
AcDbViewportTableRecord
  2
L4
 70
     0
 10
0.0
 20
0.0
 11
0.5
 21
0.5
 12
0.0
 22
0.0
 13
0.0
 23
0.0
 14
0.5
 24
0.5
 15
0.5
 25
0.5
 16
0.0
 26
-1.0
 36
0.0
 17
0.0
 27
0.0
 37
0.0
 40
1571.237298
 41
0.011301
 42
50.0
 43
807.520492
 44
-807.520492
 50
0.0
 51
0.0
 71
     0
 72
   100
 73
     1
 74
     3
 75
     0
 76
     0
 77
     0
 78
     0
281
     0
 65
     1
110
0.0
120
0.0
130
0.0
111
1.0
121
0.0
131
0.0
112
0.0
122
1.0
132
0.0
 79
     0
146
0.0
  0
VPORT
  5
120
330
8
100
AcDbSymbolTableRecord
100
AcDbViewportTableRecord
  2
L4
 70
     0
 10
0.5
 20
0.0
 11
1.0
 21
0.5
 12
0.0
 22
0.0
 13
0.0
 23
0.0
 14
0.5
 24
0.5
 15
0.5
 25
0.5
 16
1.0
 26
0.0
 36
0.0
 17
0.0
 27
0.0
 37
0.0
 40
1571.237298
 41
0.011301
 42
50.0
 43
796.265674
 44
-796.265674
 50
0.0
 51
0.0
 71
     0
 72
   100
 73
     1
 74
     3
 75
     0
 76
     0
 77
     0
 78
     0
281
     0
 65
     1
110
0.0
120
0.0
130
0.0
111
1.0
121
0.0
131
0.0
112
0.0
122
1.0
132
0.0
 79
     0
146
0.0
  0
VPORT
  5
121
330
8
100
AcDbSymbolTableRecord
100
AcDbViewportTableRecord
  2
L4
 70
     0
 10
0.5
 20
0.5
 11
1.0
 21
1.0
 12
0.0
 22
0.0
 13
0.0
 23
0.0
 14
0.5
 24
0.5
 15
0.5
 25
0.5
 16
0.5773502691896258
 26
-0.5773502691896258
 36
0.5773502691896258
 17
0.0
 27
0.0
 37
0.0
 40
1541.391436
 41
0.01152
 42
50.0
 43
802.546837
 44
-802.546837
 50
0.0
 51
0.0
 71
     0
 72
   100
 73
     1
 74
     3
 75
     0
 76
     0
 77
     0
 78
     0
281
     0
 65
     1
110
0.0
120
0.0
130
0.0
111
1.0
121
0.0
131
0.0
112
0.0
122
1.0
132
0.0
 79
     0
146
0.0
  0
VPORT
  5
122
330
8
100
AcDbSymbolTableRecord
100
AcDbViewportTableRecord
  2
L6
 70
     0
 10
0.0
 20
0.5
 11
0.333333
 21
1.0
 12
0.0
 22
0.0
 13
0.0
 23
0.0
 14
0.5
 24
0.5
 15
0.5
 25
0.5
 16
0.7188730927569433
 26
-0.5850486126764433
 36
0.3754192287502549
 17
0.0
 27
0.0
 37
0.0
 40
1626.598086
 41
0.010916
 42
50.0
 43
842.155719
 44
-842.155719
 50
0.0
 51
0.0
 71
     0
 72
   100
 73
     1
 74
     3
 75
     0
 76
     0
 77
     0
 78
     0
281
     0
 65
     1
110
0.0
120
0.0
130
0.0
111
1.0
121
0.0
131
0.0
112
0.0
122
1.0
132
0.0
 79
     0
146
0.0
  0
VPORT
  5
123
330
8
100
AcDbSymbolTableRecord
100
AcDbViewportTableRecord
  2
L6
 70
     0
 10
0.0
 20
0.0
 11
0.333333
 21
0.5
 12
0.0
 22
0.0
 13
0.0
 23
0.0
 14
0.5
 24
0.5
 15
0.5
 25
0.5
 16
-1.0
 26
0.0
 36
0.0
 17
0.0
 27
0.0
 37
0.0
 40
1571.237298
 41
0.011301
 42
50.0
 43
796.265674
 44
-796.265674
 50
0.0
 51
0.0
 71
     0
 72
   100
 73
     1
 74
     3
 75
     0
 76
     0
 77
     0
 78
     0
281
     0
 65
     1
110
0.0
120
0.0
130
0.0
111
1.0
121
0.0
131
0.0
112
0.0
122
1.0
132
0.0
 79
     0
146
0.0
  0
VPORT
  5
124
330
8
100
AcDbSymbolTableRecord
100
AcDbViewportTableRecord
  2
L6
 70
     0
 10
0.333333
 20
0.5
 11
0.666667
 21
1.0
 12
181.7082
 22
159.418307
 13
0.0
 23
0.0
 14
0.5
 24
0.5
 15
0.5
 25
0.5
 16
0.0
 26
0.0
 36
1.0
 17
0.0
 27
0.0
 37
0.0
 40
259.55625
 41
0.068412
 42
50.0
 43
546.974958
 44
-546.974958
 50
0.0
 51
0.0
 71
     0
 72
   100
 73
     1
 74
     3
 75
     0
 76
     0
 77
     0
 78
     0
281
     0
 65
     1
110
0.0
120
0.0
130
0.0
111
1.0
121
0.0
131
0.0
112
0.0
122
1.0
132
0.0
 79
     0
146
0.0
  0
VPORT
  5
125
330
8
100
AcDbSymbolTableRecord
100
AcDbViewportTableRecord
  2
L6
 70
     0
 10
0.333333
 20
0.0
 11
0.666667
 21
0.5
 12
0.0
 22
0.0
 13
0.0
 23
0.0
 14
0.5
 24
0.5
 15
0.5
 25
0.5
 16
0.0
 26
-1.0
 36
0.0
 17
0.0
 27
0.0
 37
0.0
 40
1571.237298
 41
0.011301
 42
50.0
 43
807.520492
 44
-807.520492
 50
0.0
 51
0.0
 71
     0
 72
   100
 73
     1
 74
     3
 75
     0
 76
     0
 77
     0
 78
     0
281
     0
 65
     1
110
0.0
120
0.0
130
0.0
111
1.0
121
0.0
131
0.0
112
0.0
122
1.0
132
0.0
 79
     0
146
0.0
  0
VPORT
  5
126
330
8
100
AcDbSymbolTableRecord
100
AcDbViewportTableRecord
  2
L6
 70
     0
 10
0.666667
 20
0.5
 11
1.0
 21
1.0
 12
0.0
 22
0.0
 13
0.0
 23
0.0
 14
0.5
 24
0.5
 15
0.5
 25
0.5
 16
0.5773502691896258
 26
-0.5773502691896258
 36
0.5773502691896258
 17
0.0
 27
0.0
 37
0.0
 40
1541.391436
 41
0.01152
 42
50.0
 43
802.546837
 44
-802.546837
 50
0.0
 51
0.0
 71
     0
 72
   100
 73
     1
 74
     3
 75
     0
 76
     0
 77
     0
 78
     0
281
     0
 65
     1
110
0.0
120
0.0
130
0.0
111
1.0
121
0.0
131
0.0
112
0.0
122
1.0
132
0.0
 79
     0
146
0.0
  0
VPORT
  5
127
330
8
100
AcDbSymbolTableRecord
100
AcDbViewportTableRecord
  2
L6
 70
     0
 10
0.666667
 20
0.0
 11
1.0
 21
0.5
 12
0.0
 22
0.0
 13
0.0
 23
0.0
 14
0.5
 24
0.5
 15
0.5
 25
0.5
 16
1.0
 26
0.0
 36
0.0
 17
0.0
 27
0.0
 37
0.0
 40
1571.237298
 41
0.011301
 42
50.0
 43
796.265674
 44
-796.265674
 50
0.0
 51
0.0
 71
     0
 72
   100
 73
     1
 74
     3
 75
     0
 76
     0
 77
     0
 78
     0
281
     0
 65
     1
110
0.0
120
0.0
130
0.0
111
1.0
121
0.0
131
0.0
112
0.0
122
1.0
132
0.0
 79
     0
146
0.0
  0
ENDTAB
  0
TABLE
  2
LTYPE
  5
5
330
0
100
AcDbSymbolTable
 70
     6
  0
LTYPE
  5
14
330
5
100
AcDbSymbolTableRecord
100
AcDbLinetypeTableRecord
  2
ByBlock
 70
     0
  3

 72
    65
 73
     0
 40
0.0
  0
LTYPE
  5
15
330
5
100
AcDbSymbolTableRecord
100
AcDbLinetypeTableRecord
  2
ByLayer
 70
     0
  3

 72
    65
 73
     0
 40
0.0
  0
LTYPE
  5
16
330
5
100
AcDbSymbolTableRecord
100
AcDbLinetypeTableRecord
  2
Continuous
 70
     0
  3
Solid line
 72
    65
 73
     0
 40
0.0
  0
LTYPE
  5
6E
330
5
100
AcDbSymbolTableRecord
100
AcDbLinetypeTableRecord
  2
CENTER
 70
     0
  3
____ _ ____ _ ____ _ ____
 72
    65
 73
     4
 40
47.4
 49
22.0
 74
     4
 75
     0
340
0
 46
0.0
 50
0.0
 44
0.0
 45
0.0
 49
-8.5
 74
     4
 75
     0
340
0
 46
0.0
 50
0.0
 44
0.0
 45
0.0
 49
8.5
 74
     4
 75
     0
340
0
 46
0.0
 50
0.0
 44
0.0
 45
0.0
 49
-8.5
 74
     4
 75
     0
340
0
 46
0.0
 50
0.0
 44
0.0
 45
0.0
  0
LTYPE
  5
6F
330
5
100
AcDbSymbolTableRecord
100
AcDbLinetypeTableRecord
  2
DASHDOT
 70
     0
  3
_._._._._._._._._._._._._._._._.
 72
    65
 73
     4
 40
70.0
 49
31.0
 74
     4
 75
     0
340
0
 46
0.0
 50
0.0
 44
0.0
 45
0.0
 49
-13.0
 74
     4
 75
     0
340
0
 46
0.0
 50
0.0
 44
0.0
 45
0.0
 49
13.0
 74
     4
 75
     0
340
0
 46
0.0
 50
0.0
 44
0.0
 45
0.0
 49
-13.0
 74
     4
 75
     0
340
0
 46
0.0
 50
0.0
 44
0.0
 45
0.0
  0
LTYPE
  5
70
330
5
100
AcDbSymbolTableRecord
100
AcDbLinetypeTableRecord
  2
DASHED
 70
     0
  3
__ __ __ __ __ __ __ __ __
 72
    65
 73
     2
 40
25.72
 49
12.86
 74
     4
 75
     0
340
0
 46
0.0
 50
0.0
 44
0.0
 45
0.0
 49
-12.86
 74
     4
 75
     0
340
0
 46
0.0
 50
0.0
 44
0.0
 45
0.0
  0
LTYPE
  5
71
330
5
100
AcDbSymbolTableRecord
100
AcDbLinetypeTableRecord
  2
DOT
 70
     0
  3
.........................
 72
    65
 73
     2
 40
10.0
 49
0.0
 74
     4
 75
     0
340
0
 46
0.0
 50
0.0
 44
0.0
 45
0.0
 49
-10.0
 74
     4
 75
     0
340
0
 46
0.0
 50
0.0
 44
0.0
 45
0.0
  0
LTYPE
  5
72
330
5
100
AcDbSymbolTableRecord
100
AcDbLinetypeTableRecord
  2
PHANTOM
 70
     0
  3
____ _ _ ____ _ _ _____ _ _ ____
 72
    65
 73
     6
 40
50.5
 49
18.0
 74
     4
 75
     0
340
0
 46
0.0
 50
0.0
 44
0.0
 45
0.0
 49
-6.5
 74
     4
 75
     0
340
0
 46
0.0
 50
0.0
 44
0.0
 45
0.0
 49
6.5
 74
     4
 75
     0
340
0
 46
0.0
 50
0.0
 44
0.0
 45
0.0
 49
-6.5
 74
     4
 75
     0
340
0
 46
0.0
 50
0.0
 44
0.0
 45
0.0
 49
6.5
 74
     4
 75
     0
340
0
 46
0.0
 50
0.0
 44
0.0
 45
0.0
 49
-6.5
 74
     4
 75
     0
340
0
 46
0.0
 50
0.0
 44
0.0
 45
0.0
  0
ENDTAB
  0
TABLE
  2
LAYER
  5
2
330
0
100
AcDbSymbolTable
 70
     2
  0
LAYER
  5
10
330
2
100
AcDbSymbolTableRecord
100
AcDbLayerTableRecord
  2
0
 70
     0
 62
     7
  6
Continuous
370
    -3
390
F
  0
LAYER
  5
74
330
2
100
AcDbSymbolTableRecord
100
AcDbLayerTableRecord
  2
1
 70
     0
 62
     7
420
 16777215
  6
Continuous
370
    -3
390
F
  0
ENDTAB
  0
TABLE
  2
STYLE
  5
3
330
0
100
AcDbSymbolTable
 70
     1
  0
STYLE
  5
11
330
3
100
AcDbSymbolTableRecord
100
AcDbTextStyleTableRecord
  2
Standard
 70
     0
 40
0.0
 41
1.0
 50
0.0
 71
     0
 42
0.2
  3
txt
  4

  0
ENDTAB
  0
TABLE
  2
VIEW
  5
6
330
0
100
AcDbSymbolTable
 70
     0
  0
ENDTAB
  0
TABLE
  2
UCS
  5
7
330
0
100
AcDbSymbolTable
 70
     0
  0
ENDTAB
  0
TABLE
  2
APPID
  5
9
330
0
100
AcDbSymbolTable
 70
     2
  0
APPID
  5
12
330
9
100
AcDbSymbolTableRecord
100
AcDbRegAppTableRecord
  2
ACAD
 70
     0
  0
APPID
  5
167
330
9
100
AcDbSymbolTableRecord
100
AcDbRegAppTableRecord
  2
ACAD_MLEADERVER
 70
     0
  0
ENDTAB
  0
TABLE
  2
DIMSTYLE
  5
A
330
0
100
AcDbSymbolTable
 70
     1
100
AcDbDimStyleTable
  0
DIMSTYLE
105
27
330
A
100
AcDbSymbolTableRecord
100
AcDbDimStyleTableRecord
  2
Standard
 70
     0
178
     0
340
11
  0
ENDTAB
  0
TABLE
  2
BLOCK_RECORD
  5
1
330
0
100
AcDbSymbolTable
 70
     1
  0
BLOCK_RECORD
  5
1F
330
1
100
AcDbSymbolTableRecord
100
AcDbBlockTableRecord
  2
*Model_Space
340
22
  0
BLOCK_RECORD
  5
1B
330
1
100
AcDbSymbolTableRecord
100
AcDbBlockTableRecord
  2
*Paper_Space
340
1E
  0
BLOCK_RECORD
  5
23
330
1
100
AcDbSymbolTableRecord
100
AcDbBlockTableRecord
  2
*Paper_Space0
340
26
  0
ENDTAB
  0
ENDSEC
  0
SECTION
  2
BLOCKS
  0
BLOCK
  5
20
330
1F
100
AcDbEntity
  8
0
100
AcDbBlockBegin
  2
*Model_Space
 70
     0
 10
0.0
 20
0.0
 30
0.0
  3
*Model_Space
  1

  0
ENDBLK
  5
21
330
1F
100
AcDbEntity
  8
0
100
AcDbBlockEnd
  0
BLOCK
  5
1C
330
1B
100
AcDbEntity
 67
     1
  8
0
100
AcDbBlockBegin
  2
*Paper_Space
 70
     0
 10
0.0
 20
0.0
 30
0.0
  3
*Paper_Space
  1

  0
ENDBLK
  5
1D
330
1B
100
AcDbEntity
 67
     1
  8
0
100
AcDbBlockEnd
  0
BLOCK
  5
24
330
23
100
AcDbEntity
  8
0
100
AcDbBlockBegin
  2
*Paper_Space0
 70
     0
 10
0.0
 20
0.0
 30
0.0
  3
*Paper_Space0
  1

  0
ENDBLK
  5
25
330
23
100
AcDbEntity
  8
0
100
AcDbBlockEnd
  0
ENDSEC
  0
SECTION
  2
ENTITIES
  0
LINE
  5
73
330
1F
100
AcDbEntity
  8
1
  6
Continuous
 62
     1
370
    13
100
AcDbLine
 10
102.007789
 20
200.578837
 30
0.0
 11
108.170322
 21
200.578837
 31
0.0
  0
LINE
  5
75
330
1F
100
AcDbEntity
  8
1
  6
Continuous
 62
     1
370
    13
100
AcDbLine
 10
132.804194
 20
200.578837
 30
0.0
 11
138.916229
 21
200.578837
 31
0.0
  0
LINE
  5
76
330
1F
100
AcDbEntity
  8
1
  6
Continuous
 62
     1
370
    13
100
AcDbLine
 10
114.8092
 20
197.82735
 30
0.0
 11
126.165316
 21
197.82735
 31
0.0
  0
LINE
  5
77
330
1F
100
AcDbEntity
  8
1
  6
Continuous
 62
     1
370
    13
100
AcDbLine
 10
126.165316
 20
195.453837
 30
0.0
 11
126.165316
 21
197.82735
 31
0.0
  0
LINE
  5
78
330
1F
100
AcDbEntity
  8
1
  6
Continuous
 62
     1
370
    13
100
AcDbLine
 10
114.8092
 20
195.453837
 30
0.0
 11
114.8092
 21
197.82735
 31
0.0
  0
LINE
  5
79
330
1F
100
AcDbEntity
  8
1
  6
Continuous
 62
     1
370
    18
100
AcDbLine
 10
92.987258
 20
195.453837
 30
0.0
 11
147.987258
 21
195.453837
 31
0.0
  0
LINE
  5
7A
330
1F
100
AcDbEntity
  8
1
  6
Continuous
 62
     1
370
    18
100
AcDbLine
 10
147.987258
 20
179.453837
 30
0.0
 11
147.987258
 21
195.453837
 31
0.0
  0
LINE
  5
7B
330
1F
100
AcDbEntity
  8
1
  6
Continuous
 62
     1
370
    18
100
AcDbLine
 10
132.487258
 20
97.853837
 30
0.0
 11
132.487258
 21
179.453837
 31
0.0
  0
LINE
  5
7C
330
1F
100
AcDbEntity
  8
1
  6
Continuous
 62
     1
370
    18
100
AcDbLine
 10
108.487258
 20
179.453837
 30
0.0
 11
108.487258
 21
97.853837
 31
0.0
  0
LINE
  5
7D
330
1F
100
AcDbEntity
  8
1
  6
Continuous
 62
     1
370
    18
100
AcDbLine
 10
130.087258
 20
95.453837
 30
0.0
 11
132.487258
 21
97.853837
 31
0.0
  0
LINE
  5
7E
330
1F
100
AcDbEntity
  8
1
  6
Continuous
 62
     1
370
    18
100
AcDbLine
 10
108.487258
 20
97.853837
 30
0.0
 11
110.887258
 21
95.453837
 31
0.0
  0
LINE
  5
7F
330
1F
100
AcDbEntity
  8
1
  6
Continuous
 62
     1
370
    18
100
AcDbLine
 10
92.987258
 20
179.453837
 30
0.0
 11
147.987258
 21
179.453837
 31
0.0
  0
LINE
  5
80
330
1F
100
AcDbEntity
  8
1
  6
Continuous
 62
     1
370
    18
100
AcDbLine
 10
108.487258
 20
97.853837
 30
0.0
 11
132.487258
 21
97.853837
 31
0.0
  0
LINE
  5
81
330
1F
100
AcDbEntity
  8
1
  6
Continuous
 62
     1
370
    18
100
AcDbLine
 10
92.987258
 20
195.453837
 30
0.0
 11
92.987258
 21
179.453837
 31
0.0
  0
LINE
  5
82
330
1F
100
AcDbEntity
  8
1
  6
Continuous
 62
     1
370
    18
100
AcDbLine
 10
110.887258
 20
95.453837
 30
0.0
 11
130.087258
 21
95.453837
 31
0.0
  0
LINE
  5
83
330
1F
100
AcDbEntity
  8
1
  6
Continuous
 62
     1
370
    13
100
AcDbLine
 10
267.33334
 20
200.578837
 30
0.0
 11
277.383381
 21
200.578837
 31
0.0
  0
LINE
  5
84
330
1F
100
AcDbEntity
  8
1
  6
Continuous
 62
     1
370
    18
100
AcDbLine
 10
253.316415
 20
95.453837
 30
0.0
 11
262.916415
 21
95.453837
 31
0.0
  0
LINE
  5
85
330
1F
100
AcDbEntity
  8
1
  6
Continuous
 62
     1
370
    18
100
AcDbLine
 10
262.916415
 20
95.453837
 30
0.0
 11
272.516415
 21
95.453837
 31
0.0
  0
LINE
  5
86
330
1F
100
AcDbEntity
  8
1
  6
Continuous
 62
     1
370
    18
100
AcDbLine
 10
274.916415
 20
97.853837
 30
0.0
 11
262.916415
 21
97.853837
 31
0.0
  0
LINE
  5
87
330
1F
100
AcDbEntity
  8
1
  6
Continuous
 62
     1
370
    18
100
AcDbLine
 10
262.916415
 20
97.853837
 30
0.0
 11
250.916415
 21
97.853837
 31
0.0
  0
LINE
  5
88
330
1F
100
AcDbEntity
  8
1
  6
Continuous
 62
     1
370
    13
100
AcDbLine
 10
252.571254
 20
206.033255
 30
0.0
 11
248.44945
 21
200.578837
 31
0.0
  0
LINE
  5
89
330
1F
100
AcDbEntity
  8
1
  6
Continuous
 62
     1
370
    13
100
AcDbLine
 10
277.383381
 20
200.578837
 30
0.0
 11
273.261576
 21
206.033255
 31
0.0
  0
LINE
  5
8A
330
1F
100
AcDbEntity
  8
1
  6
Continuous
 62
     1
370
    18
100
AcDbLine
 10
273.936558
 20
207.993613
 30
0.0
 11
280.405998
 21
197.82735
 31
0.0
  0
LINE
  5
8B
330
1F
100
AcDbEntity
  8
1
  6
Continuous
 62
     1
370
    13
100
AcDbLine
 10
248.44945
 20
200.578837
 30
0.0
 11
258.499491
 21
200.578837
 31
0.0
  0
LINE
  5
8C
330
1F
100
AcDbEntity
  8
1
  6
Continuous
 62
     1
370
    18
100
AcDbLine
 10
290.416415
 20
195.453837
 30
0.0
 11
262.916415
 21
195.453837
 31
0.0
  0
LINE
  5
8D
330
1F
100
AcDbEntity
  8
1
  6
Continuous
 62
     1
370
    18
100
AcDbLine
 10
262.916415
 20
195.453837
 30
0.0
 11
235.416415
 21
195.453837
 31
0.0
  0
LINE
  5
8E
330
1F
100
AcDbEntity
  8
1
  6
Continuous
 62
     1
370
    18
100
AcDbLine
 10
290.416415
 20
179.453837
 30
0.0
 11
262.916415
 21
179.453837
 31
0.0
  0
LINE
  5
8F
330
1F
100
AcDbEntity
  8
1
  6
Continuous
 62
     1
370
    18
100
AcDbLine
 10
262.916415
 20
179.453837
 30
0.0
 11
235.416415
 21
179.453837
 31
0.0
  0
LINE
  5
90
330
1F
100
AcDbEntity
  8
1
  6
Continuous
 62
     1
370
    18
100
AcDbLine
 10
273.166412
 20
210.692513
 30
0.0
 11
273.16639
 21
210.68545
 31
0.0
  0
LINE
  5
91
330
1F
100
AcDbEntity
  8
1
  6
Continuous
 62
     1
370
    18
100
AcDbLine
 10
273.166386
 20
210.68461
 30
0.0
 11
273.166408
 21
210.691128
 31
0.0
  0
LINE
  5
92
330
1F
100
AcDbEntity
  8
1
  6
Continuous
 62
     1
370
    18
100
AcDbLine
 10
252.666432
 20
210.687542
 30
0.0
 11
252.666418
 21
210.692515
 31
0.0
  0
LINE
  5
93
330
1F
100
AcDbEntity
  8
1
  6
Continuous
 62
     1
370
    18
100
AcDbLine
 10
273.166415
 20
210.664249
 30
0.0
 11
273.166415
 21
283.703837
 31
0.0
  0
LINE
  5
94
330
1F
100
AcDbEntity
  8
1
  6
Continuous
 62
     1
370
    18
100
AcDbLine
 10
290.416415
 20
179.453837
 30
0.0
 11
290.416415
 21
195.453837
 31
0.0
  0
LINE
  5
95
330
1F
100
AcDbEntity
  8
1
  6
Continuous
 62
     1
370
    18
100
AcDbLine
 10
235.416415
 20
195.453837
 30
0.0
 11
235.416415
 21
179.453837
 31
0.0
  0
LINE
  5
96
330
1F
100
AcDbEntity
  8
1
  6
Continuous
 62
     1
370
    18
100
AcDbLine
 10
274.916415
 20
97.853837
 30
0.0
 11
274.916415
 21
179.453837
 31
0.0
  0
LINE
  5
97
330
1F
100
AcDbEntity
  8
1
  6
Continuous
 62
     1
370
    18
100
AcDbLine
 10
250.916415
 20
179.453837
 30
0.0
 11
250.916415
 21
97.853837
 31
0.0
  0
LINE
  5
98
330
1F
100
AcDbEntity
  8
1
  6
Continuous
 62
     1
370
    18
100
AcDbLine
 10
272.516415
 20
95.453837
 30
0.0
 11
274.916415
 21
97.853837
 31
0.0
  0
LINE
  5
99
330
1F
100
AcDbEntity
  8
1
  6
Continuous
 62
     1
370
    18
100
AcDbLine
 10
250.916415
 20
97.853837
 30
0.0
 11
253.316415
 21
95.453837
 31
0.0
  0
LINE
  5
9A
330
1F
100
AcDbEntity
  8
1
  6
Continuous
 62
     1
370
    18
100
AcDbLine
 10
252.666415
 20
283.703837
 30
0.0
 11
252.666415
 21
210.670217
 31
0.0
  0
LINE
  5
9B
330
1F
100
AcDbEntity
  8
1
  6
Continuous
 62
     1
370
    18
100
AcDbLine
 10
245.426833
 20
197.82735
 30
0.0
 11
251.896272
 21
207.993613
 31
0.0
  0
LINE
  5
9C
330
1F
100
AcDbEntity
  8
1
  6
Continuous
 62
     1
370
    13
100
AcDbLine
 10
126.165316
 20
29.83322
 30
0.0
 11
114.8092
 21
29.83322
 31
0.0
  0
LINE
  5
9D
330
1F
100
AcDbEntity
  8
1
  6
Continuous
 62
     1
370
    13
100
AcDbLine
 10
114.8092
 20
73.459916
 30
0.0
 11
126.165316
 21
73.459916
 31
0.0
  0
LINE
  5
9E
330
1F
100
AcDbEntity
  8
1
  6
Continuous
 62
     1
370
    13
100
AcDbLine
 10
114.8092
 20
69.13615
 30
0.0
 11
114.8092
 21
73.459916
 31
0.0
  0
LINE
  5
9F
330
1F
100
AcDbEntity
  8
1
  6
Continuous
 62
     1
370
    13
100
AcDbLine
 10
108.170322
 20
66.113533
 30
0.0
 11
104.847991
 21
70.015807
 31
0.0
  0
LINE
  5
A0
330
1F
100
AcDbEntity
  8
1
  6
Continuous
 62
     1
370
    13
100
AcDbLine
 10
132.804194
 20
37.179602
 30
0.0
 11
136.126525
 21
33.277329
 31
0.0
  0
LINE
  5
A1
330
1F
100
AcDbEntity
  8
1
  6
Continuous
 62
     1
370
    13
100
AcDbLine
 10
126.165316
 20
29.83322
 30
0.0
 11
126.165316
 21
34.156985
 31
0.0
  0
LINE
  5
A2
330
1F
100
AcDbEntity
  8
1
  6
Continuous
 62
     1
370
    13
100
AcDbLine
 10
114.8092
 20
29.83322
 30
0.0
 11
114.8092
 21
34.156985
 31
0.0
  0
LINE
  5
A3
330
1F
100
AcDbEntity
  8
1
  6
Continuous
 62
     1
370
    13
100
AcDbLine
 10
108.170322
 20
37.179602
 30
0.0
 11
104.847991
 21
33.277329
 31
0.0
  0
LINE
  5
A4
330
1F
100
AcDbEntity
  8
1
  6
Continuous
 62
     1
370
    13
100
AcDbLine
 10
132.804194
 20
66.113533
 30
0.0
 11
136.126525
 21
70.015807
 31
0.0
  0
LINE
  5
A5
330
1F
100
AcDbEntity
  8
1
  6
Continuous
 62
     1
370
    13
100
AcDbLine
 10
126.165316
 20
69.13615
 30
0.0
 11
126.165316
 21
73.459916
 31
0.0
  0
LINE
  5
A6
330
1F
100
AcDbEntity
  8
1
  6
Continuous
 62
     1
370
    13
100
AcDbLine
 10
114.8092
 20
34.156985
 30
0.0
 11
126.165316
 21
34.156985
 31
0.0
  0
LINE
  5
A7
330
1F
100
AcDbEntity
  8
1
  6
Continuous
 62
     1
370
    13
100
AcDbLine
 10
126.165316
 20
69.13615
 30
0.0
 11
114.8092
 21
69.13615
 31
0.0
  0
LINE
  5
A8
330
1F
100
AcDbEntity
  8
1
  6
Continuous
 62
     1
370
    18
100
AcDbLine
 10
157.820987
 20
61.896568
 30
0.0
 11
83.320987
 21
61.896568
 31
0.0
  0
LINE
  5
A9
330
1F
100
AcDbEntity
  8
1
  6
Continuous
 62
     1
370
    18
100
AcDbLine
 10
83.320987
 20
41.396568
 30
0.0
 11
157.820987
 21
41.396568
 31
0.0
  0
ARC
  5
AA
330
1F
100
AcDbEntity
  8
1
  6
Continuous
 62
     1
370
    18
100
AcDbCircle
 10
120.570987
 20
246.453837
 30
0.0
 40
47.50000000000001
100
AcDbArc
 50
299.320585
 51
0.0
  0
CIRCLE
  5
AB
330
1F
100
AcDbEntity
  8
1
  6
Continuous
 62
     1
370
    18
100
AcDbCircle
 10
120.570987
 20
246.453837
 30
0.0
 40
27.0
  0
ARC
  5
AC
330
1F
100
AcDbEntity
  8
1
  6
Continuous
 62
     1
370
    18
100
AcDbCircle
 10
120.570987
 20
246.453837
 30
0.0
 40
47.50000000000001
100
AcDbArc
 50
0.0
 51
240.662033
  0
ARC
  5
AD
330
1F
100
AcDbEntity
  8
1
  6
Continuous
 62
     1
370
    18
100
AcDbCircle
 10
284.729763
 20
200.578837
 30
0.0
 40
5.125
100
AcDbArc
 50
212.471192
 51
270.0
  0
ARC
  5
AE
330
1F
100
AcDbEntity
  8
1
  6
Continuous
 62
     1
370
    18
100
AcDbCircle
 10
262.916415
 20
283.703837
 30
0.0
 40
10.25
100
AcDbArc
 50
0.0
 51
180.0
  0
ARC
  5
AF
330
1F
100
AcDbEntity
  8
1
  6
Continuous
 62
     1
370
    13
100
AcDbCircle
 10
120.487258
 20
51.646568
 30
0.0
 40
24.125
100
AcDbArc
 50
205.142835
 51
229.589475
  0
ARC
  5
B0
330
1F
100
AcDbEntity
  8
1
  6
Continuous
 62
     1
370
    13
100
AcDbCircle
 10
120.487258
 20
51.646568
 30
0.0
 40
24.125
100
AcDbArc
 50
310.410525
 51
334.85699
  0
ARC
  5
B1
330
1F
100
AcDbEntity
  8
1
  6
Continuous
 62
     1
370
    13
100
AcDbCircle
 10
120.487258
 20
51.646568
 30
0.0
 40
24.125
100
AcDbArc
 50
25.14301
 51
49.589475
  0
ARC
  5
B2
330
1F
100
AcDbEntity
  8
1
  6
Continuous
 62
     1
370
    18
100
AcDbCircle
 10
120.487258
 20
51.646568
 30
0.0
 40
27.5
100
AcDbArc
 50
201.886875
 51
338.11875
  0
ARC
  5
B3
330
1F
100
AcDbEntity
  8
1
  6
Continuous
 62
     1
370
    18
100
AcDbCircle
 10
120.487258
 20
51.646568
 30
0.0
 40
27.5
100
AcDbArc
 50
21.88125
 51
158.113125
  0
ARC
  5
B4
330
1F
100
AcDbEntity
  8
1
  6
Continuous
 62
     1
370
    13
100
AcDbCircle
 10
120.487258
 20
51.646568
 30
0.0
 40
24.125
100
AcDbArc
 50
130.410525
 51
154.857165
  0
ARC
  5
B5
330
1F
100
AcDbEntity
  8
1
  6
Continuous
 62
     1
370
    18
100
AcDbCircle
 10
120.487258
 20
51.646568
 30
0.0
 40
18.99999999994646
100
AcDbArc
 50
33.081838
 51
49.589475
  0
ARC
  5
B6
330
1F
100
AcDbEntity
  8
1
  6
Continuous
 62
     1
370
    18
100
AcDbCircle
 10
120.487258
 20
51.646568
 30
0.0
 40
19.00000000002103
100
AcDbArc
 50
212.989283
 51
229.589475
  0
ARC
  5
B7
330
1F
100
AcDbEntity
  8
1
  6
Continuous
 62
     1
370
    13
100
AcDbCircle
 10
120.487258
 20
54.177552
 30
0.0
 40
16.00000000000095
100
AcDbArc
 50
32.058569
 51
69.213994
  0
ARC
  5
B8
330
1F
100
AcDbEntity
  8
1
  6
Continuous
 62
     1
370
    13
100
AcDbCircle
 10
120.487258
 20
49.115583
 30
0.0
 40
15.99999999999834
100
AcDbArc
 50
212.044138
 51
249.213994
  0
ARC
  5
B9
330
1F
100
AcDbEntity
  8
1
  6
Continuous
 62
     1
370
    13
100
AcDbCircle
 10
120.487258
 20
54.177552
 30
0.0
 40
16.00000000000006
100
AcDbArc
 50
110.786006
 51
147.955862
  0
ARC
  5
BA
330
1F
100
AcDbEntity
  8
1
  6
Continuous
 62
     1
370
    18
100
AcDbCircle
 10
120.487258
 20
51.646568
 30
0.0
 40
19.00000000000498
100
AcDbArc
 50
130.410525
 51
147.010717
  0
ARC
  5
BB
330
1F
100
AcDbEntity
  8
1
  6
Continuous
 62
     1
370
    13
100
AcDbCircle
 10
120.487258
 20
49.115583
 30
0.0
 40
16.00000000000034
100
AcDbArc
 50
290.786006
 51
327.941431
  0
ARC
  5
BC
330
1F
100
AcDbEntity
  8
1
  6
Continuous
 62
     1
370
    18
100
AcDbCircle
 10
120.487258
 20
51.646568
 30
0.0
 40
19.0000000000357
100
AcDbArc
 50
310.410525
 51
326.918162
  0
ARC
  5
BD
330
1F
100
AcDbEntity
  8
1
  6
Continuous
 62
     1
370
    18
100
AcDbCircle
 10
157.820987
 20
51.646568
 30
0.0
 40
10.25
100
AcDbArc
 50
270.0
 51
90.0
  0
ARC
  5
BE
330
1F
100
AcDbEntity
  8
1
  6
Continuous
 62
     1
370
    18
100
AcDbCircle
 10
83.320987
 20
51.646568
 30
0.0
 40
10.25
100
AcDbArc
 50
90.0
 51
270.0
  0
ELLIPSE
  5
BF
330
1F
100
AcDbEntity
  8
1
  6
Continuous
 62
     1
370
    13
100
AcDbEllipse
 10
97.023195
 20
200.578837
 30
0.0
 11
0.0
 21
5.125
 31
0.0
210
0.0
220
0.0
230
1.0
 40
0.758975
 41
3.141592653589797
 42
5.688535356781348
  0
ELLIPSE
  5
C0
330
1F
100
AcDbEntity
  8
1
  6
Continuous
 62
     1
370
    13
100
AcDbEllipse
 10
143.887202
 20
200.578837
 30
0.0
 11
0.0
 21
-5.125
 31
0.0
210
0.0
220
0.0
230
1.0
 40
0.738975
 41
3.744072995607196
 42
6.283185307179593
  0
ELLIPSE
  5
C1
330
1F
100
AcDbEntity
  8
1
  6
Continuous
 62
     1
370
    13
100
AcDbEllipse
 10
97.023195
 20
200.578837
 30
0.0
 11
4.095262980824623
 21
-3.081305911117461
 31
0.0
210
0.0
220
0.0
230
1.0
 40
0.92926
 41
0.680618063734347
 42
1.729729921956305
  0
ELLIPSE
  5
C2
330
1F
100
AcDbEntity
  8
1
  6
Continuous
 62
     1
370
    13
100
AcDbEllipse
 10
143.887202
 20
200.578837
 30
0.0
 11
4.10615910459581
 21
3.066770680658228
 31
0.0
210
0.0
220
0.0
230
1.0
 40
0.922238
 41
1.412618789418913
 42
2.460876695768355
  0
ELLIPSE
  5
C3
330
1F
100
AcDbEntity
  8
1
  6
Continuous
 62
     1
370
    13
100
AcDbEllipse
 10
97.023195
 20
200.578837
 30
0.0
 11
0.0
 21
5.125
 31
0.0
210
0.0
220
0.0
230
1.0
 40
0.972604
 41
3.141592653589794
 42
4.71238898038469
  0
ELLIPSE
  5
C4
330
1F
100
AcDbEntity
  8
1
  6
Continuous
 62
     1
370
    13
100
AcDbEllipse
 10
143.887202
 20
200.578837
 30
0.0
 11
0.0
 21
5.125
 31
0.0
210
0.0
220
0.0
230
1.0
 40
0.969946
 41
1.570796326794897
 42
3.141592653589793
  0
ELLIPSE
  5
C5
330
1F
100
AcDbEntity
  8
1
  6
Continuous
 62
     1
370
    13
100
AcDbEllipse
 10
136.126525
 20
200.578837
 30
0.0
 11
0.0
 21
5.125
 31
0.0
210
0.0
220
0.0
230
1.0
 40
0.64826
 41
1.570796326794897
 42
3.141592653589794
  0
ELLIPSE
  5
C6
330
1F
100
AcDbEntity
  8
1
  6
Continuous
 62
     1
370
    13
100
AcDbEllipse
 10
104.847991
 20
200.578837
 30
0.0
 11
0.0
 21
5.125
 31
0.0
210
0.0
220
0.0
230
1.0
 40
0.64826
 41
3.141592653589793
 42
4.71238898038469
  0
ELLIPSE
  5
C7
330
1F
100
AcDbEntity
  8
1
  6
Continuous
 62
     1
370
    13
100
AcDbEllipse
 10
100.251873
 20
206.033255
 30
0.0
 11
-4.710124218071248
 21
2.019988824310356
 31
0.0
210
0.0
220
0.0
230
1.0
 40
0.519
 41
3.832179011025842
 42
4.680876839882119
  0
ELLIPSE
  5
C8
330
1F
100
AcDbEntity
  8
1
  6
Continuous
 62
     1
370
    13
100
AcDbEllipse
 10
106.925024
 20
210.745099
 30
0.0
 11
-0.1673637798371742
 21
-5.12226652617751
 31
0.0
210
0.0
220
0.0
230
1.0
 40
0.020777
 41
1.004406484014987
 42
1.630918063646356
  0
ELLIPSE
  5
C9
330
1F
100
AcDbEntity
  8
1
  6
Continuous
 62
     1
370
    13
100
AcDbEllipse
 10
134.047353
 20
210.739732
 30
0.0
 11
0.1568907470385819
 21
-5.122598002331794
 31
0.0
210
0.0
220
0.0
230
1.0
 40
0.019477
 41
4.65562409030858
 42
5.278819973720045
  0
ELLIPSE
  5
CA
330
1F
100
AcDbEntity
  8
1
  6
Continuous
 62
     1
370
    13
100
AcDbEllipse
 10
140.701397
 20
205.999206
 30
0.0
 11
-4.714967799207601
 21
-2.008657176432912
 31
0.0
210
0.0
220
0.0
230
1.0
 40
0.515529
 41
4.742829886583914
 42
5.59257152025198
  0
ELLIPSE
  5
CB
330
1F
100
AcDbEntity
  8
1
  6
Continuous
 62
     1
370
    13
100
AcDbEllipse
 10
120.487258
 20
221.333719
 30
0.0
 11
2.945373488093479E-14
 21
25.1428571428595
 31
0.0
210
0.0
220
0.0
230
1.0
 40
0.636364
 41
3.504376892625714
 42
4.152861398691413
  0
ELLIPSE
  5
CC
330
1F
100
AcDbEntity
  8
1
  6
Continuous
 62
     1
370
    13
100
AcDbEllipse
 10
120.487258
 20
219.723092
 30
0.0
 11
2.945373488089598E-14
 21
25.14285714282636
 31
0.0
210
0.0
220
0.0
230
1.0
 40
0.755682
 41
3.846889369661353
 42
4.135001978747192
  0
ELLIPSE
  5
CD
330
1F
100
AcDbEntity
  8
1
  6
Continuous
 62
     1
370
    13
100
AcDbEllipse
 10
120.487258
 20
219.723092
 30
0.0
 11
2.945373488093563E-14
 21
25.14285714286021
 31
0.0
210
0.0
220
0.0
230
1.0
 40
0.755682
 41
2.146567939877913
 42
2.436295937518011
  0
ELLIPSE
  5
CE
330
1F
100
AcDbEntity
  8
1
  6
Continuous
 62
     1
370
    13
100
AcDbEllipse
 10
120.487258
 20
221.333719
 30
0.0
 11
2.945373488093688E-14
 21
25.14285714286127
 31
0.0
210
0.0
220
0.0
230
1.0
 40
0.636364
 41
2.130072043162144
 42
2.778808414553858
  0
ELLIPSE
  5
CF
330
1F
100
AcDbEntity
  8
1
  6
Continuous
 62
     1
370
    18
100
AcDbEllipse
 10
94.785835
 20
200.578837
 30
0.0
 11
0.0
 21
-5.125
 31
0.0
210
0.0
220
0.0
230
1.0
 40
0.999998
 41
0.0001792608002529
 42
2.629136037373647
  0
ELLIPSE
  5
D0
330
1F
100
AcDbEntity
  8
1
  6
Continuous
 62
     1
370
    18
100
AcDbEllipse
 10
146.356106
 20
200.578837
 30
0.0
 11
0.0
 21
5.125
 31
0.0
210
0.0
220
0.0
230
1.0
 40
0.999993
 41
0.5148149057386167
 42
3.139323406766211
  0
ELLIPSE
  5
D1
330
1F
100
AcDbEntity
  8
1
  6
Continuous
 62
     1
370
    13
100
AcDbEllipse
 10
268.524747
 20
200.578837
 30
0.0
 11
1.551652504794251
 21
-4.884465119577142
 31
0.0
210
0.0
220
0.0
230
1.0
 40
0.22211
 41
3.592836013978486
 42
4.641947872200443
  0
ELLIPSE
  5
D2
330
1F
100
AcDbEntity
  8
1
  6
Continuous
 62
     1
370
    13
100
AcDbEllipse
 10
281.285654
 20
200.578837
 30
0.0
 11
0.0
 21
5.125
 31
0.0
210
0.0
220
0.0
230
1.0
 40
0.761419
 41
1.570796326794897
 42
3.141592653589793
  0
ELLIPSE
  5
D3
330
1F
100
AcDbEntity
  8
1
  6
Continuous
 62
     1
370
    13
100
AcDbEllipse
 10
268.524747
 20
200.578837
 30
0.0
 11
0.0
 21
5.125
 31
0.0
210
0.0
220
0.0
230
1.0
 40
0.23247
 41
1.570796326794897
 42
3.141592653589793
  0
ELLIPSE
  5
D4
330
1F
100
AcDbEntity
  8
1
  6
Continuous
 62
     1
370
    13
100
AcDbEllipse
 10
257.308084
 20
200.578837
 30
0.0
 11
1.551652504803154
 21
4.884465119574312
 31
0.0
210
0.0
220
0.0
230
1.0
 40
0.22211
 41
4.782830088569341
 42
5.831941946791297
  0
ELLIPSE
  5
D5
330
1F
100
AcDbEntity
  8
1
  6
Continuous
 62
     1
370
    13
100
AcDbEllipse
 10
244.547176
 20
200.578837
 30
0.0
 11
0.0
 21
-5.125
 31
0.0
210
0.0
220
0.0
230
1.0
 40
0.761419
 41
0.0
 42
1.570796326794897
  0
ELLIPSE
  5
D6
330
1F
100
AcDbEntity
  8
1
  6
Continuous
 62
     1
370
    13
100
AcDbEllipse
 10
257.308084
 20
200.578837
 30
0.0
 11
0.0
 21
-5.125
 31
0.0
210
0.0
220
0.0
230
1.0
 40
0.23247
 41
0.0
 42
1.570796326794897
  0
ELLIPSE
  5
D7
330
1F
100
AcDbEntity
  8
1
  6
Continuous
 62
     1
370
    13
100
AcDbEllipse
 10
268.524747
 20
200.578837
 30
0.0
 11
0.0
 21
5.125
 31
0.0
210
0.0
220
0.0
230
1.0
 40
0.65112
 41
0.594649950398238
 42
3.14159265358979
  0
ELLIPSE
  5
D8
330
1F
100
AcDbEntity
  8
1
  6
Continuous
 62
     1
370
    13
100
AcDbEllipse
 10
247.572507
 20
210.745099
 30
0.0
 11
-4.323765124627124
 21
2.751486897489829
 31
0.0
210
0.0
220
0.0
230
1.0
 40
0.999251
 41
3.141592653589766
 42
3.768104233221151
  0
ELLIPSE
  5
D9
330
1F
100
AcDbEntity
  8
1
  6
Continuous
 62
     1
370
    13
100
AcDbEllipse
 10
278.260323
 20
210.745099
 30
0.0
 11
-4.323765124627052
 21
-2.751486897489941
 31
0.0
210
0.0
220
0.0
230
1.0
 40
0.999251
 41
5.656673727548199
 42
6.283185307179584
  0
ELLIPSE
  5
DA
330
1F
100
AcDbEntity
  8
1
  6
Continuous
 62
     1
370
    13
100
AcDbEllipse
 10
276.052047
 20
206.033255
 30
0.0
 11
-4.276078028706046
 21
2.825027733035097
 31
0.0
210
0.0
220
0.0
230
1.0
 40
0.336904
 41
0.2505208159580365
 42
1.099218644814317
  0
ELLIPSE
  5
DB
330
1F
100
AcDbEntity
  8
1
  6
Continuous
 62
     1
370
    13
100
AcDbEllipse
 10
249.780783
 20
206.033255
 30
0.0
 11
4.276078028706046
 21
2.825027733035098
 31
0.0
210
0.0
220
0.0
230
1.0
 40
0.336904
 41
5.183966662365274
 42
6.032664491221547
  0
ELLIPSE
  5
DC
330
1F
100
AcDbEntity
  8
1
  6
Continuous
 62
     1
370
    13
100
AcDbEllipse
 10
257.308084
 20
200.578837
 30
0.0
 11
0.0
 21
5.125
 31
0.0
210
0.0
220
0.0
230
1.0
 40
0.65112
 41
3.141592653589793
 42
5.688535356781356
  0
ELLIPSE
  5
DD
330
1F
100
AcDbEntity
  8
1
  6
Continuous
 62
     1
370
    18
100
AcDbEllipse
 10
278.291409
 20
210.696247
 30
0.0
 11
4.32376512462741
 21
2.751486897489379
 31
0.0
210
0.0
220
0.0
230
1.0
 40
1.0
 41
2.574242999710454
 42
3.141378360864083
  0
ELLIPSE
  5
DE
330
1F
100
AcDbEntity
  8
1
  6
Continuous
 62
     1
370
    18
100
AcDbEllipse
 10
247.541422
 20
210.696247
 30
0.0
 11
4.323765124626694
 21
-2.751486897490503
 31
0.0
210
0.0
220
0.0
230
1.0
 40
1.0
 41
0.0002142927259229
 42
0.5665421417270274
  0
ELLIPSE
  5
DF
330
1F
100
AcDbEntity
  8
1
  6
Continuous
 62
     1
370
    18
100
AcDbEllipse
 10
241.10381
 20
200.578837
 30
0.0
 11
0.0
 21
5.125
 31
0.0
210
0.0
220
0.0
230
1.0
 40
0.999963
 41
3.142657692295621
 42
4.156440921306714
  0
ELLIPSE
  5
E0
330
1F
100
AcDbEntity
  8
1
  6
Continuous
 62
     1
370
    13
100
AcDbEllipse
 10
106.925024
 20
66.990476
 30
0.0
 11
0.1065380320346384
 21
-5.123892528901264
 31
0.0
210
0.0
220
0.0
230
1.0
 40
0.032649
 41
5.716116607182021
 42
6.174263729395113
  0
ELLIPSE
  5
E1
330
1F
100
AcDbEntity
  8
1
  6
Continuous
 62
     1
370
    13
100
AcDbEllipse
 10
134.047353
 20
66.993891
 30
0.0
 11
-0.09986741522127973
 21
-5.12402688316299
 31
0.0
210
0.0
220
0.0
230
1.0
 40
0.030607
 41
0.1027369401536049
 42
0.5670275248973535
  0
ELLIPSE
  5
E2
330
1F
100
AcDbEntity
  8
1
  6
Continuous
 62
     1
370
    13
100
AcDbEllipse
 10
106.925024
 20
36.30266
 30
0.0
 11
-0.1065380320346416
 21
-5.123892528901264
 31
0.0
210
0.0
220
0.0
230
1.0
 40
0.032649
 41
3.250514231374204
 42
3.708661353587349
  0
ELLIPSE
  5
E3
330
1F
100
AcDbEntity
  8
1
  6
Continuous
 62
     1
370
    13
100
AcDbEllipse
 10
134.047353
 20
36.299244
 30
0.0
 11
0.09986741522128455
 21
-5.12402688316299
 31
0.0
210
0.0
220
0.0
230
1.0
 40
0.030607
 41
2.574565128692451
 42
3.038855713436225
  0
SPLINE
  5
E4
330
1F
100
AcDbEntity
  8
1
  6
Continuous
 62
     1
370
    13
100
AcDbSpline
210
0.0
220
0.0
230
1.0
 70
     8
 71
     3
 72
    33
 73
    29
 74
     0
 42
0.000000001
 43
0.0000000001
 40
0.0
 40
0.0
 40
0.0
 40
0.0
 40
0.0003879012083689
 40
0.0003879012083689
 40
0.0316257792956071
 40
0.0316257792956071
 40
0.0628636573828452
 40
0.0628636573828452
 40
0.125339413557321
 40
0.125339413557321
 40
0.2502909259062731
 40
0.2502909259062731
 40
0.3752424382552253
 40
0.3752424382552253
 40
0.4377181944297018
 40
0.4377181944297018
 40
0.5001939506041785
 40
0.5001939506041785
 40
0.5314318286914175
 40
0.5314318286914175
 40
0.5626697067786565
 40
0.6251454629531341
 40
0.6251454629531341
 40
0.7500969753020892
 40
0.7500969753020892
 40
0.8750484876510446
 40
0.8750484876510446
 40
1.0
 40
1.0
 40
1.0
 40
1.0
 10
97.29696314881647
 20
205.0464736544009
 30
0.0
 10
97.29696215574225
 20
205.0464737727377
 30
0.0
 10
97.29696116266511
 20
205.04647389105
 30
0.0
 10
97.29695654843266
 20
205.0464744407439
 30
0.0
 10
97.29773885602097
 20
205.0463812422008
 30
0.0
 10
97.30087100495763
 20
205.0460081264057
 30
0.0
 10
97.30322078604708
 20
205.0457282163505
 30
0.0
 10
97.3126119095185
 20
205.0446096594837
 30
0.0
 10
97.3220316513897
 20
205.0434878029475
 30
0.0
 10
97.35918531294928
 20
205.0390649781839
 30
0.0
 10
97.39578517758326
 20
205.0347098571139
 30
0.0
 10
97.49066479289027
 20
205.0234399007408
 30
0.0
 10
97.54895079196099
 20
205.016524354212
 30
0.0
 10
97.6515880123347
 20
205.0043763276965
 30
0.0
 10
97.6883389537949
 20
205.0000308113976
 30
0.0
 10
97.76678160946196
 20
204.9907677563254
 30
0.0
 10
97.80827751190968
 20
204.9858733549272
 30
0.0
 10
97.87369380288098
 20
204.9781688851198
 30
0.0
 10
97.89603969414738
 20
204.9755388762077
 30
0.0
 10
97.94160200536516
 20
204.9701804389322
 30
0.0
 10
98.01130822930503
 20
204.9619884403369
 30
0.0
 10
98.08493590536861
 20
204.9533552938886
 30
0.0
 10
98.23703747868095
 20
204.9355518190283
 30
0.0
 10
98.34488605506844
 20
204.9229682319898
 30
0.0
 10
98.57186256003232
 20
204.8965944204953
 30
0.0
 10
98.6909957530473
 20
204.8828035638768
 30
0.0
 10
98.93933131115534
 20
204.8541908431668
 30
0.0
 10
99.06853691340879
 20
204.8393685879052
 30
0.0
 10
99.20230487922916
 20
204.824103585212
 30
0.0
  0
SPLINE
  5
E5
330
1F
100
AcDbEntity
  8
1
  6
Continuous
 62
     1
370
    13
100
AcDbSpline
210
0.0
220
0.0
230
1.0
 70
     8
 71
     3
 72
    30
 73
    26
 74
     0
 42
0.000000001
 43
0.0000000001
 40
0.0
 40
0.0
 40
0.0
 40
0.0
 40
0.124807646667357
 40
0.124807646667357
 40
0.249615293334714
 40
0.249615293334714
 40
0.3120191166683933
 40
0.3120191166683933
 40
0.3744229400020725
 40
0.3744229400020725
 40
0.4992305866694298
 40
0.4992305866694298
 40
0.6240382333367871
 40
0.6240382333367871
 40
0.6864420566704654
 40
0.6864420566704654
 40
0.7176439683373045
 40
0.7176439683373045
 40
0.7488458800041436
 40
0.7488458800041436
 40
0.8736535266715015
 40
0.8736535266715015
 40
0.9984611733388592
 40
0.9984611733388592
 40
1.0
 40
1.0
 40
1.0
 40
1.0
 10
141.7410148148788
 20
204.8014916606561
 30
0.0
 10
141.8869653974139
 20
204.8180619081262
 30
0.0
 10
142.0284742999123
 20
204.8342224468213
 30
0.0
 10
142.3015000429634
 20
204.8655555224058
 30
0.0
 10
142.4330215652218
 20
204.8807286253253
 30
0.0
 10
142.6217218646232
 20
204.9025911064222
 30
0.0
 10
142.6832123676874
 20
204.9097314828426
 30
0.0
 10
142.8029989486078
 20
204.9236693518341
 30
0.0
 10
142.8609881003028
 20
204.9304311081274
 30
0.0
 10
143.0289703638925
 20
204.9500542102117
 30
0.0
 10
143.1329955215522
 20
204.9622553006952
 30
0.0
 10
143.3233126144869
 20
204.9846402980021
 30
0.0
 10
143.4096139105353
 20
204.9948253122556
 30
0.0
 10
143.5239250585558
 20
205.0083441575555
 30
0.0
 10
143.5594993331125
 20
205.0125566512797
 30
0.0
 10
143.6087667488625
 20
205.0183960400659
 30
0.0
 10
143.624528937829
 20
205.020265231779
 30
0.0
 10
143.6544066615446
 20
205.0238098859477
 30
0.0
 10
143.6685485509404
 20
205.0254884688756
 30
0.0
 10
143.735253552563
 20
205.0334090933501
 30
0.0
 10
143.7758235910858
 20
205.0382361171317
 30
0.0
 10
143.8305610291232
 20
205.0447515726623
 30
0.0
 10
143.8447325352426
 20
205.0464404663885
 30
0.0
 10
143.8450118243204
 20
205.0464737381137
 30
0.0
 10
143.8450140359189
 20
205.0464740015792
 30
0.0
 10
143.845012275207
 20
205.0464737918107
 30
0.0
  0
SPLINE
  5
E6
330
1F
100
AcDbEntity
  8
1
  6
Continuous
 62
     1
370
    13
100
AcDbSpline
210
0.0
220
0.0
230
1.0
 70
     8
 71
     3
 72
    24
 73
    20
 74
     0
 42
0.000000001
 43
0.0000000001
 40
0.0
 40
0.0
 40
0.0
 40
0.0
 40
0.1249999999999998
 40
0.1249999999999998
 40
0.2499999999999996
 40
0.2499999999999996
 40
0.3749999999999993
 40
0.3749999999999993
 40
0.4374999999999991
 40
0.4374999999999991
 40
0.4999999999999988
 40
0.4999999999999988
 40
0.6249999999999991
 40
0.6249999999999991
 40
0.7499999999999994
 40
0.7499999999999994
 40
0.8749999999999998
 40
0.8749999999999998
 40
1.0
 40
1.0
 40
1.0
 40
1.0
 10
99.20230487922915
 20
204.824103585212
 30
0.0
 10
99.27035670959532
 20
204.9041077384891
 30
0.0
 10
99.34423542967417
 20
204.9923277837045
 30
0.0
 10
99.5021272702682
 20
205.1853373627291
 30
0.0
 10
99.58614387690635
 20
205.2901263320924
 30
0.0
 10
99.76280986393871
 20
205.5169001391376
 30
0.0
 10
99.85546307719079
 20
205.6388823604326
 30
0.0
 10
99.9997184127894
 20
205.8356220209621
 30
0.0
 10
100.0486816698109
 20
205.9035007043719
 30
0.0
 10
100.1481445245944
 20
206.0440601021455
 30
0.0
 10
100.1986634472969
 20
206.1167687676083
 30
0.0
 10
100.3520495044103
 20
206.342300472367
 30
0.0
 10
100.45546008143
 20
206.5006181874317
 30
0.0
 10
100.6621173994925
 20
206.8339729028181
 30
0.0
 10
100.7653689600662
 20
207.0090081521661
 30
0.0
 10
100.9689981856157
 20
207.3770783191099
 30
0.0
 10
101.069381372315
 20
207.5701098472047
 30
0.0
 10
101.2641616438961
 20
207.9760175214601
 30
0.0
 10
101.3585654760471
 20
208.1888883432659
 30
0.0
 10
101.4481280879747
 20
208.4129509009173
 30
0.0
  0
SPLINE
  5
E7
330
1F
100
AcDbEntity
  8
1
  6
Continuous
 62
     1
370
    13
100
AcDbSpline
210
0.0
220
0.0
230
1.0
 70
     8
 71
     3
 72
    28
 73
    24
 74
     0
 42
0.000000001
 43
0.0000000001
 40
0.0
 40
0.0
 40
0.0
 40
0.0
 40
0.0624999999999986
 40
0.0937499999999984
 40
0.0937499999999984
 40
0.1249999999999983
 40
0.1249999999999983
 40
0.2499999999999991
 40
0.2499999999999991
 40
0.3749999999999996
 40
0.3749999999999996
 40
0.5
 40
0.5
 40
0.6250000000000004
 40
0.6250000000000004
 40
0.6562500000000006
 40
0.6562500000000006
 40
0.6875000000000008
 40
0.750000000000001
 40
0.750000000000001
 40
0.8750000000000004
 40
0.8750000000000004
 40
1.0
 40
1.0
 40
1.0
 40
1.0
 10
139.5228497501602
 20
208.3676477532287
 30
0.0
 10
139.5665240038234
 20
208.2578268202413
 30
0.0
 10
139.6340594127664
 20
208.0964754810461
 30
0.0
 10
139.7041557214955
 20
207.9399893582231
 30
0.0
 10
139.7514055176977
 20
207.8367266161941
 30
0.0
 10
139.7752704908569
 20
207.785669643646
 30
0.0
 10
139.8953435885619
 20
207.5338466597585
 30
0.0
 10
139.9940680508549
 20
207.3427879114006
 30
0.0
 10
140.1938154310056
 20
206.9791928762004
 30
0.0
 10
140.294844740821
 20
206.8066621021611
 30
0.0
 10
140.4966600967831
 20
206.4785207242893
 30
0.0
 10
140.5974511324993
 20
206.3229134242713
 30
0.0
 10
140.7965551807815
 20
206.0275448559105
 30
0.0
 10
140.8948724596696
 20
205.8877851705759
 30
0.0
 10
141.0149302293371
 20
205.7226032543331
 30
0.0
 10
141.0387715243248
 20
205.6900836321193
 30
0.0
 10
141.0859372869913
 20
205.6262612591592
 30
0.0
 10
141.1559783209856
 20
205.5322605739796
 30
0.0
 10
141.2237949279254
 20
205.4433419074445
 30
0.0
 10
141.3562077310679
 20
205.2720236896556
 30
0.0
 10
141.4401865356548
 20
205.1664882200884
 30
0.0
 10
141.5982902666485
 20
204.971811968638
 30
0.0
 10
141.6724181317689
 20
204.8826732058264
 30
0.0
 10
141.7410148148788
 20
204.801491660656
 30
0.0
  0
SPLINE
  5
E8
330
1F
100
AcDbEntity
  8
1
  6
Continuous
 62
     1
370
    13
100
AcDbSpline
210
0.0
220
0.0
230
1.0
 70
     8
 71
     3
 72
    30
 73
    26
 74
     0
 42
0.000000001
 43
0.0000000001
 40
0.0
 40
0.0
 40
0.0
 40
0.0
 40
0.1250000000000009
 40
0.1250000000000009
 40
0.2500000000000018
 40
0.2500000000000018
 40
0.3125000000000019
 40
0.3125000000000019
 40
0.3437500000000019
 40
0.3437500000000019
 40
0.3593750000000022
 40
0.3593750000000022
 40
0.3750000000000024
 40
0.5000000000000022
 40
0.5000000000000022
 40
0.625000000000002
 40
0.625000000000002
 40
0.7500000000000017
 40
0.7500000000000017
 40
0.8750000000000013
 40
0.8750000000000013
 40
0.9062500000000009
 40
0.9062500000000009
 40
0.9375000000000004
 40
1.0
 40
1.0
 40
1.0
 40
1.0
 10
138.9162291084902
 20
200.5788372336495
 30
0.0
 10
138.8373136333841
 20
200.7129994942078
 30
0.0
 10
138.751996565331
 20
200.8600881019363
 30
0.0
 10
138.5703730744743
 20
201.1796747431715
 30
0.0
 10
138.4740629267326
 20
201.3521748664998
 30
0.0
 10
138.3226436573992
 20
201.6301491797401
 30
0.0
 10
138.2710112117947
 20
201.7260162609378
 30
0.0
 10
138.1919853048797
 20
201.8746953502621
 30
0.0
 10
138.165380480884
 20
201.925068433751
 30
0.0
 10
138.12509944977
 20
202.0018590822319
 30
0.0
 10
138.111601286668
 20
202.0276782041466
 30
0.0
 10
138.0845419976525
 20
202.0796170101847
 30
0.0
 10
137.9624726747065
 20
202.3147306296911
 30
0.0
 10
137.8378709096925
 20
202.5622278507188
 30
0.0
 10
137.6144740110402
 20
203.0212284163381
 30
0.0
 10
137.5018310279037
 20
203.2602345961862
 30
0.0
 10
137.2766829615507
 20
203.7571384446099
 30
0.0
 10
137.1641755584857
 20
204.0150377868985
 30
0.0
 10
136.9413109664472
 20
204.5499829818547
 30
0.0
 10
136.8309520436611
 20
204.8270295976639
 30
0.0
 10
136.6956372181963
 20
205.1856728269927
 30
0.0
 10
136.6686892293961
 20
205.2580658429627
 30
0.0
 10
136.6152177092951
 20
205.4037487554656
 30
0.0
 10
136.535619814692
 20
205.6236868588273
 30
0.0
 10
136.4579792642639
 20
205.8478649054338
 30
0.0
 10
136.4072019350101
 20
205.9992058659123
 30
0.0
  0
SPLINE
  5
E9
330
1F
100
AcDbEntity
  8
1
  6
Continuous
 62
     1
370
    13
100
AcDbSpline
210
0.0
220
0.0
230
1.0
 70
     8
 71
     3
 72
    25
 73
    21
 74
     0
 42
0.000000001
 43
0.0000000001
 40
0.0
 40
0.0
 40
0.0
 40
0.0
 40
0.124999999999999
 40
0.124999999999999
 40
0.249999999999998
 40
0.249999999999998
 40
0.374999999999997
 40
0.374999999999997
 40
0.499999999999996
 40
0.499999999999996
 40
0.5312499999999963
 40
0.5312499999999963
 40
0.5624999999999966
 40
0.6249999999999969
 40
0.6249999999999969
 40
0.7499999999999979
 40
0.7499999999999979
 40
0.8749999999999989
 40
0.8749999999999989
 40
1.0
 40
1.0
 40
1.0
 40
1.0
 10
104.5505821168799
 20
206.033255137045
 30
0.0
 10
104.4465656961058
 20
205.72529179737
 30
0.0
 10
104.3390837626935
 20
205.426906352674
 30
0.0
 10
104.1193218942846
 20
204.8487296467333
 30
0.0
 10
104.0070408518613
 20
204.5689373258539
 30
0.0
 10
103.779778759835
 20
204.0276727371079
 30
0.0
 10
103.6647958706424
 20
203.766198718413
 30
0.0
 10
103.434237777035
 20
203.2616261564629
 30
0.0
 10
103.3186597714832
 20
203.0185246224989
 30
0.0
 10
103.1751832268992
 20
202.7264159063105
 30
0.0
 10
103.1465029636621
 20
202.6685139714425
 30
0.0
 10
103.089518041804
 20
202.5543788501555
 30
0.0
 10
103.0045692536206
 20
202.3856050164831
 30
0.0
 10
102.9213495395906
 20
202.2240481090872
 30
0.0
 10
102.75759051863
 20
201.9104260784185
 30
0.0
 10
102.6519908786519
 20
201.7139808371965
 30
0.0
 10
102.4499200078687
 20
201.3461339599328
 30
0.0
 10
102.3534446673628
 20
201.1747299690255
 30
0.0
 10
102.1716725114098
 20
200.8573900340515
 30
0.0
 10
102.0863704105595
 20
200.711448479093
 30
0.0
 10
102.0077890300343
 20
200.5788372336495
 30
0.0
  0
SPLINE
  5
EA
330
1F
100
AcDbEntity
  8
1
  6
Continuous
 62
     1
370
    13
100
AcDbSpline
210
0.0
220
0.0
230
1.0
 70
     8
 71
     3
 72
    26
 73
    22
 74
     0
 42
0.000000001
 43
0.0000000001
 40
0.0
 40
0.0
 40
0.0
 40
0.0
 40
0.1250000000000007
 40
0.1250000000000007
 40
0.1875000000000009
 40
0.1875000000000009
 40
0.2500000000000012
 40
0.2500000000000012
 40
0.3750000000000015
 40
0.3750000000000015
 40
0.5000000000000019
 40
0.5000000000000019
 40
0.5625000000000018
 40
0.5625000000000018
 40
0.6250000000000018
 40
0.6250000000000018
 40
0.7500000000000011
 40
0.7500000000000011
 40
0.8750000000000006
 40
0.8750000000000006
 40
1.0
 40
1.0
 40
1.0
 40
1.0
 10
126.1653161457644
 20
197.8273503361596
 30
0.0
 10
126.4731429159995
 20
197.9251232519219
 30
0.0
 10
126.7782582157427
 20
198.0265861203926
 30
0.0
 10
127.2319602960307
 20
198.1831641165683
 30
0.0
 10
127.3824984846206
 20
198.2360827775737
 30
0.0
 10
127.6816023690483
 20
198.3430220850455
 30
0.0
 10
127.8302462752619
 20
198.3970696820419
 30
0.0
 10
128.2734331492934
 20
198.560769251158
 30
0.0
 10
128.5652355256954
 20
198.6719659000797
 30
0.0
 10
129.1413074663228
 20
198.8978774886988
 30
0.0
 10
129.4255770984165
 20
199.0125955817651
 30
0.0
 10
129.8460616745648
 20
199.187123031401
 30
0.0
 10
129.9852354727878
 20
199.2457096697584
 30
0.0
 10
130.2615484603858
 20
199.3636991793464
 30
0.0
 10
130.3987770496578
 20
199.4231431484924
 30
0.0
 10
130.80551615741
 20
199.6019178891739
 30
0.0
 10
131.0706357885168
 20
199.7219157572433
 30
0.0
 10
131.5883185008638
 20
199.9635909167276
 30
0.0
 10
131.8408842536368
 20
200.0852689144339
 30
0.0
 10
132.3327482109326
 20
200.3305284251412
 30
0.0
 10
132.5720508645317
 20
200.4541095551457
 30
0.0
 10
132.8041940307745
 20
200.5788372336495
 30
0.0
  0
SPLINE
  5
EB
330
1F
100
AcDbEntity
  8
1
  6
Continuous
 62
     1
370
    13
100
AcDbSpline
210
0.0
220
0.0
230
1.0
 70
     8
 71
     3
 72
    29
 73
    25
 74
     0
 42
0.000000001
 43
0.0000000001
 40
0.0
 40
0.0
 40
0.0
 40
0.0
 40
0.1250000000000001
 40
0.1250000000000001
 40
0.2500000000000002
 40
0.2500000000000002
 40
0.3125000000000002
 40
0.3125000000000002
 40
0.3750000000000003
 40
0.3750000000000003
 40
0.4375000000000003
 40
0.4375000000000003
 40
0.5000000000000003
 40
0.5625000000000003
 40
0.5625000000000003
 40
0.6250000000000003
 40
0.6250000000000003
 40
0.6875000000000002
 40
0.6875000000000002
 40
0.7500000000000002
 40
0.7500000000000002
 40
0.8750000000000001
 40
0.8750000000000001
 40
1.0
 40
1.0
 40
1.0
 40
1.0
 10
107.0413125514233
 20
211.0494025519852
 30
0.0
 10
108.1562042858148
 20
210.8957311565916
 30
0.0
 10
109.2731939350735
 20
210.7719841461679
 30
0.0
 10
111.5106328301682
 20
210.5736664927224
 30
0.0
 10
112.6310798646176
 20
210.4990635665666
 30
0.0
 10
114.3137285661006
 20
210.4151056392966
 30
0.0
 10
114.8749406417258
 20
210.3917699672276
 30
0.0
 10
115.9979248364306
 20
210.3529750003945
 30
0.0
 10
116.5596965777256
 20
210.3375102398939
 30
0.0
 10
117.6837158769763
 20
210.3132370850108
 30
0.0
 10
118.2457228127139
 20
210.3044288014095
 30
0.0
 10
119.3693588145869
 20
210.2926270761009
 30
0.0
 10
120.4927455437784
 20
210.2866308145519
 30
0.0
 10
121.6156603497055
 20
210.2915983218857
 30
0.0
 10
122.7383287171284
 20
210.3023029970927
 30
0.0
 10
123.2995395476949
 20
210.3105271717439
 30
0.0
 10
124.421682280728
 20
210.3335037288154
 30
0.0
 10
124.9826139674951
 20
210.3482613545681
 30
0.0
 10
126.1041493996284
 20
210.3854982138289
 30
0.0
 10
126.6647529218223
 20
210.407982875408
 30
0.0
 10
128.3459835722878
 20
210.4891624358181
 30
0.0
 10
129.4660298653766
 20
210.5616051365069
 30
0.0
 10
131.7040809844185
 20
210.7551511614927
 30
0.0
 10
132.8220843396569
 20
210.8762905709608
 30
0.0
 10
133.9388392414606
 20
211.0273088435673
 30
0.0
  0
SPLINE
  5
EC
330
1F
100
AcDbEntity
  8
1
  6
Continuous
 62
     1
370
    13
100
AcDbSpline
210
0.0
220
0.0
230
1.0
 70
     8
 71
     3
 72
    48
 73
    44
 74
     0
 42
0.000000001
 43
0.0000000001
 40
0.0
 40
0.0
 40
0.0
 40
0.0
 40
0.0625000000000028
 40
0.1250000000000056
 40
0.1250000000000056
 40
0.1875000000000084
 40
0.1875000000000084
 40
0.203125000000009
 40
0.203125000000009
 40
0.2187500000000096
 40
0.2187500000000096
 40
0.2500000000000086
 40
0.2500000000000086
 40
0.2812500000000075
 40
0.2812500000000075
 40
0.3125000000000066
 40
0.3125000000000066
 40
0.3750000000000043
 40
0.3750000000000043
 40
0.4375000000000021
 40
0.4375000000000021
 40
0.4999999999999998
 40
0.4999999999999998
 40
0.5156249999999992
 40
0.5156249999999992
 40
0.5312499999999987
 40
0.5312499999999987
 40
0.546874999999998
 40
0.546874999999998
 40
0.5624999999999973
 40
0.5624999999999973
 40
0.6249999999999972
 40
0.6249999999999972
 40
0.7499999999999974
 40
0.7499999999999974
 40
0.7812499999999976
 40
0.7968749999999978
 40
0.7968749999999978
 40
0.8124999999999979
 40
0.8124999999999979
 40
0.8749999999999983
 40
0.8749999999999983
 40
1.0
 40
1.0
 40
1.0
 40
1.0
 10
101.4481280879747
 20
208.4129509009173
 30
0.0
 10
101.4943175124865
 20
208.5285049292091
 30
0.0
 10
101.5993429116817
 20
208.7554284508392
 30
0.0
 10
101.7292956609134
 20
208.9740142919383
 30
0.0
 10
101.8718301498854
 20
209.1882952401511
 30
0.0
 10
101.9493873329903
 20
209.2932840381012
 30
0.0
 10
102.0544658781761
 20
209.4216418044129
 30
0.0
 10
102.0758890029469
 20
209.447169004709
 30
0.0
 10
102.1195601853042
 20
209.497928139173
 30
0.0
 10
102.1418118985864
 20
209.5231626870284
 30
0.0
 10
102.2095609512217
 20
209.5981323704098
 30
0.0
 10
102.2561323404039
 20
209.6472295086239
 30
0.0
 10
102.3520826859252
 20
209.7436345048616
 30
0.0
 10
102.4015605408177
 20
209.7910269795905
 30
0.0
 10
102.5025446486503
 20
209.8832838614952
 30
0.0
 10
102.5541066528651
 20
209.9282132786725
 30
0.0
 10
102.7119163760337
 20
210.0594591958037
 30
0.0
 10
102.8212821327815
 20
210.1422403727859
 30
0.0
 10
103.0480287147764
 20
210.2984739758579
 30
0.0
 10
103.1654108609352
 20
210.3719250948778
 30
0.0
 10
103.4080564855423
 20
210.5093891736056
 30
0.0
 10
103.5333208225729
 20
210.5734013148993
 30
0.0
 10
103.6948272344691
 20
210.6473380323449
 30
0.0
 10
103.7273751126461
 20
210.661821047419
 30
0.0
 10
103.7929651831596
 20
210.6901723717287
 30
0.0
 10
103.8260338063074
 20
210.7040510760591
 30
0.0
 10
103.8924717208036
 20
210.7311091059589
 30
0.0
 10
103.9258533273618
 20
210.7442944641347
 30
0.0
 10
103.9929383651547
 20
210.7699809316711
 30
0.0
 10
104.0266656514783
 20
210.7824904176429
 30
0.0
 10
104.1957404426966
 20
210.8432066141512
 30
0.0
 10
104.3324014888667
 20
210.885939834006
 30
0.0
 10
104.7462556976153
 20
210.9976024949682
 30
0.0
 10
105.0273072403481
 20
211.050031201292
 30
0.0
 10
105.3842550600703
 20
211.0903293762726
 30
0.0
 10
105.4917635487797
 20
211.1005211862706
 30
0.0
 10
105.5998898166227
 20
211.1079193644576
 30
0.0
 10
105.6721093453865
 20
211.1122363161346
 30
0.0
 10
105.7083067520937
 20
211.1140877372093
 30
0.0
 10
105.8891317381523
 20
211.1218032247783
 30
0.0
 10
106.0335918392024
 20
211.1230712973708
 30
0.0
 10
106.4664057554341
 20
211.1133885625391
 30
0.0
 10
106.7541929946832
 20
211.0889777515925
 30
0.0
 10
107.0413125514233
 20
211.0494025519852
 30
0.0
  0
SPLINE
  5
ED
330
1F
100
AcDbEntity
  8
1
  6
Continuous
 62
     1
370
    13
100
AcDbSpline
210
0.0
220
0.0
230
1.0
 70
     8
 71
     3
 72
    42
 73
    38
 74
     0
 42
0.000000001
 43
0.0000000001
 40
0.0
 40
0.0
 40
0.0
 40
0.0
 40
0.1249999999999987
 40
0.1249999999999987
 40
0.2499999999999974
 40
0.2499999999999974
 40
0.2656249999999973
 40
0.2656249999999973
 40
0.2812499999999973
 40
0.2812499999999973
 40
0.3124999999999969
 40
0.3749999999999954
 40
0.3749999999999954
 40
0.4374999999999939
 40
0.4374999999999939
 40
0.4999999999999923
 40
0.4999999999999923
 40
0.5312499999999909
 40
0.5312499999999909
 40
0.5624999999999895
 40
0.5624999999999895
 40
0.6249999999999877
 40
0.6249999999999877
 40
0.6874999999999859
 40
0.6874999999999859
 40
0.7187499999999855
 40
0.7343749999999858
 40
0.7343749999999858
 40
0.7499999999999861
 40
0.7499999999999861
 40
0.8124999999999897
 40
0.8749999999999932
 40
0.9374999999999968
 40
0.9374999999999968
 40
0.9687499999999983
 40
0.9687499999999983
 40
1.0
 40
1.0
 40
1.0
 40
1.0
 10
133.9388392414606
 20
211.0273088435673
 30
0.0
 10
134.2257571963733
 20
211.0661086320086
 30
0.0
 10
134.5126629866212
 20
211.0895846455404
 30
0.0
 10
135.0863592701058
 20
211.1008056269424
 30
0.0
 10
135.3731505714485
 20
211.0885806592295
 30
0.0
 10
135.6956380940601
 20
211.0512924933242
 30
0.0
 10
135.7314678667891
 20
211.0468213675268
 30
0.0
 10
135.8031226574947
 20
211.0372088773687
 30
0.0
 10
135.8389825455728
 20
211.0320618685117
 30
0.0
 10
135.9461997700782
 20
211.0156492486316
 30
0.0
 10
136.1593117312122
 20
210.9789285450124
 30
0.0
 10
136.368382867064
 20
210.9304306413212
 30
0.0
 10
136.6433921076866
 20
210.8550750507449
 30
0.0
 10
136.779021251585
 20
210.8120531749643
 30
0.0
 10
137.0463223616622
 20
210.7149947598303
 30
0.0
 10
137.1779952820288
 20
210.6609606802587
 30
0.0
 10
137.3723314523622
 20
210.5712831092824
 30
0.0
 10
137.4366812240543
 20
210.5398910620422
 30
0.0
 10
137.5629533781729
 20
210.4748608080841
 30
0.0
 10
137.6250303638354
 20
210.4411570078121
 30
0.0
 10
137.8080951576826
 20
210.3365464291634
 30
0.0
 10
137.9259217434248
 20
210.2621465514004
 30
0.0
 10
138.1530896614946
 20
210.1042439401706
 30
0.0
 10
138.2624320772059
 20
210.0207421169974
 30
0.0
 10
138.4199158209071
 20
209.8886714265542
 30
0.0
 10
138.4970230763113
 20
209.8209290685031
 30
0.0
 10
138.5716252316455
 20
209.7506027212776
 30
0.0
 10
138.6207956868987
 20
209.7031397431025
 30
0.0
 10
138.6451134683767
 20
209.6791023652819
 30
0.0
 10
138.7645711601823
 20
209.5581823348822
 30
0.0
 10
138.9432180208579
 20
209.3589731363662
 30
0.0
 10
139.1749457025251
 20
209.0440936502206
 30
0.0
 10
139.3054881544807
 20
208.8238492211634
 30
0.0
 10
139.3942802950133
 20
208.6548071339295
 30
0.0
 10
139.4223677657296
 20
208.5977752342768
 30
0.0
 10
139.4751024113121
 20
208.4832196075401
 30
0.0
 10
139.4998024270486
 20
208.4256013143011
 30
0.0
 10
139.5228497501602
 20
208.3676477532287
 30
0.0
  0
SPLINE
  5
EE
330
1F
100
AcDbEntity
  8
1
  6
Continuous
 62
     1
370
    13
100
AcDbSpline
210
0.0
220
0.0
230
1.0
 70
     8
 71
     3
 72
    35
 73
    31
 74
     0
 42
0.000000001
 43
0.0000000001
 40
0.0
 40
0.0
 40
0.0
 40
0.0
 40
0.0625000000000001
 40
0.1250000000000001
 40
0.1250000000000001
 40
0.1875000000000002
 40
0.1875000000000002
 40
0.2500000000000002
 40
0.2500000000000002
 40
0.3125000000000002
 40
0.3125000000000002
 40
0.3750000000000001
 40
0.3750000000000001
 40
0.4375000000000001
 40
0.4375000000000001
 40
0.5
 40
0.5624999999999999
 40
0.5624999999999999
 40
0.6249999999999999
 40
0.6249999999999999
 40
0.6874999999999998
 40
0.6874999999999998
 40
0.7499999999999998
 40
0.7499999999999998
 40
0.8124999999999998
 40
0.8124999999999998
 40
0.8749999999999999
 40
0.8749999999999999
 40
0.9374999999999999
 40
1.0
 40
1.0
 40
1.0
 40
1.0
 10
134.0473534829919
 20
207.9882452413211
 30
0.0
 10
133.4823001146748
 20
207.9709392483403
 30
0.0
 10
132.3521965725826
 20
207.9478170502545
 30
0.0
 10
131.222098313297
 20
207.9436954875059
 30
0.0
 10
130.092002059257
 20
207.946786178414
 30
0.0
 10
129.526954934418
 20
207.9519360619091
 30
0.0
 10
128.3968619739205
 20
207.9668726153438
 30
0.0
 10
127.8318161368796
 20
207.9766543134265
 30
0.0
 10
126.7017249817791
 20
207.9980843260212
 30
0.0
 10
126.1366796611579
 20
208.0097234276511
 30
0.0
 10
125.0065887730706
 20
208.0321138052005
 30
0.0
 10
124.4415432020592
 20
208.0428523297262
 30
0.0
 10
123.3114511447391
 20
208.0610373353352
 30
0.0
 10
122.7464046548024
 20
208.0684707674137
 30
0.0
 10
121.6163103003855
 20
208.0783938203064
 30
0.0
 10
120.4862145667015
 20
208.0833560721967
 30
0.0
 10
119.356115773237
 20
208.0773132318795
 30
0.0
 10
118.2260156337061
 20
208.0664290035121
 30
0.0
 10
117.6609648933995
 20
208.0585751585105
 30
0.0
 10
116.5308625494072
 20
208.0397621585134
 30
0.0
 10
115.9658109494016
 20
208.0288162395566
 30
0.0
 10
114.8357075695876
 20
208.0062777064395
 30
0.0
 10
114.2706557932551
 20
207.9946975939902
 30
0.0
 10
113.1405528328191
 20
207.9736674346349
 30
0.0
 10
112.5755016511586
 20
207.9642261749
 30
0.0
 10
111.4454006492454
 20
207.9502402218645
 30
0.0
 10
110.8803508302667
 20
207.9457001108556
 30
0.0
 10
109.750253264267
 20
207.9440720848272
 30
0.0
 10
108.620157771147
 20
207.9498995719403
 30
0.0
 10
107.4900676783852
 20
207.9751504913484
 30
0.0
 10
106.9250242547842
 20
207.9936125925809
 30
0.0
  0
SPLINE
  5
EF
330
1F
100
AcDbEntity
  8
1
  6
Continuous
 62
     1
370
    13
100
AcDbSpline
210
0.0
220
0.0
230
1.0
 70
     8
 71
     3
 72
    48
 73
    44
 74
     0
 42
0.000000001
 43
0.0000000001
 40
0.0
 40
0.0
 40
0.0
 40
0.0
 40
0.1250000000000015
 40
0.1250000000000015
 40
0.2500000000000031
 40
0.2500000000000031
 40
0.2812500000000044
 40
0.2812500000000044
 40
0.3125000000000058
 40
0.3125000000000058
 40
0.3750000000000068
 40
0.3750000000000068
 40
0.4375000000000077
 40
0.4375000000000077
 40
0.5000000000000085
 40
0.5000000000000085
 40
0.5312500000000074
 40
0.5312500000000074
 40
0.5625000000000064
 40
0.5625000000000064
 40
0.6250000000000044
 40
0.6250000000000044
 40
0.6562500000000034
 40
0.6562500000000034
 40
0.6718750000000036
 40
0.6718750000000036
 40
0.6875000000000037
 40
0.6875000000000037
 40
0.7500000000000033
 40
0.7500000000000033
 40
0.7656250000000032
 40
0.7656250000000032
 40
0.7812500000000031
 40
0.8125000000000016
 40
0.8125000000000016
 40
0.875
 40
0.875
 40
0.8906249999999997
 40
0.8906249999999997
 40
0.9062499999999993
 40
0.9374999999999999
 40
0.9374999999999999
 40
1.0
 40
1.0
 40
1.0
 40
1.0
 10
136.4072019350101
 20
205.9992058659123
 30
0.0
 10
136.378863591774
 20
206.14227813337
 30
0.0
 10
136.3427714526557
 20
206.2835229592305
 30
0.0
 10
136.2547923235373
 20
206.5622674909084
 30
0.0
 10
136.2029336565257
 20
206.6997784077028
 30
0.0
 10
136.1270677509827
 20
206.8688655355677
 30
0.0
 10
136.1113370057307
 20
206.9025406826315
 30
0.0
 10
136.0787047149281
 20
206.969584213894
 30
0.0
 10
136.0617817168574
 20
207.0029931768232
 30
0.0
 10
136.009299158721
 20
207.1024397442205
 30
0.0
 10
135.9722135189062
 20
207.1673712409434
 30
0.0
 10
135.8934799963764
 20
207.2941917872938
 30
0.0
 10
135.8518351329935
 20
207.3560832418775
 30
0.0
 10
135.7633814072104
 20
207.4763310086392
 30
0.0
 10
135.7165782521013
 20
207.5346918540514
 30
0.0
 10
135.6417777754298
 20
207.6189989718442
 30
0.0
 10
135.616075010165
 20
207.6465597099083
 30
0.0
 10
135.5629564610087
 20
207.7004581804916
 30
0.0
 10
135.5354635819605
 20
207.72685981431
 30
0.0
 10
135.4510832151168
 20
207.8030943326636
 30
0.0
 10
135.3921138031713
 20
207.8502023602287
 30
0.0
 10
135.2988489698195
 20
207.914142568678
 30
0.0
 10
135.2669559089376
 20
207.9343311732162
 30
0.0
 10
135.2177839280674
 20
207.9627334613398
 30
0.0
 10
135.2011709395625
 20
207.9718870578224
 30
0.0
 10
135.1674759211561
 20
207.9895290495597
 30
0.0
 10
135.1503876336405
 20
207.9980180871545
 30
0.0
 10
135.0644116398521
 20
208.0383880799501
 30
0.0
 10
134.9934000163106
 20
208.0643362889021
 30
0.0
 10
134.9016320489124
 20
208.0879744449864
 30
0.0
 10
134.8830840648103
 20
208.0922694385425
 30
0.0
 10
134.8460166336601
 20
208.0998920751883
 30
0.0
 10
134.790389448846
 20
208.1099000128798
 30
0.0
 10
134.7346963150742
 20
208.1157162533926
 30
0.0
 10
134.6232500475761
 20
208.1219921396337
 30
0.0
 10
134.5488738315912
 20
208.1190325656711
 30
0.0
 10
134.4558766903092
 20
208.1071958357251
 30
0.0
 10
134.4372853834192
 20
208.1044207850238
 30
0.0
 10
134.4004265428209
 20
208.0981430447746
 30
0.0
 10
134.3454977825045
 20
208.0876195510438
 30
0.0
 10
134.2915861800829
 20
208.0739864956977
 30
0.0
 10
134.1849757729559
 20
208.0430581051717
 30
0.0
 10
134.1155143347059
 20
208.0175743325522
 30
0.0
 10
134.0473534829919
 20
207.9882452413211
 30
0.0
  0
SPLINE
  5
F0
330
1F
100
AcDbEntity
  8
1
  6
Continuous
 62
     1
370
    13
100
AcDbSpline
210
0.0
220
0.0
230
1.0
 70
     8
 71
     3
 72
    48
 73
    44
 74
     0
 42
0.000000001
 43
0.0000000001
 40
0.0
 40
0.0
 40
0.0
 40
0.0
 40
0.0624999999999996
 40
0.0624999999999996
 40
0.1249999999999993
 40
0.1249999999999993
 40
0.1562499999999982
 40
0.1562499999999982
 40
0.1718749999999975
 40
0.1718749999999975
 40
0.1874999999999969
 40
0.1874999999999969
 40
0.2499999999999962
 40
0.2499999999999962
 40
0.2812499999999961
 40
0.2812499999999961
 40
0.2968749999999957
 40
0.2968749999999957
 40
0.3124999999999953
 40
0.3124999999999953
 40
0.3749999999999932
 40
0.3749999999999932
 40
0.4062499999999921
 40
0.4062499999999921
 40
0.4374999999999909
 40
0.4374999999999909
 40
0.4999999999999902
 40
0.4999999999999902
 40
0.5312499999999897
 40
0.5312499999999897
 40
0.5624999999999893
 40
0.5624999999999893
 40
0.6249999999999882
 40
0.6249999999999882
 40
0.6562499999999887
 40
0.6562499999999887
 40
0.6874999999999891
 40
0.6874999999999891
 40
0.7499999999999909
 40
0.7499999999999909
 40
0.8749999999999954
 40
0.8749999999999954
 40
1.0
 40
1.0
 40
1.0
 40
1.0
 10
106.9250242547842
 20
207.9936125925809
 30
0.0
 10
106.8572021933133
 20
208.0230539006193
 30
0.0
 10
106.7881725921862
 20
208.0487041163778
 30
0.0
 10
106.647155908815
 20
208.0905196293562
 30
0.0
 10
106.5751705736503
 20
208.1066937038876
 30
0.0
 10
106.4644541548073
 20
208.121932892121
 30
0.0
 10
106.4269986968923
 20
208.1254987856029
 30
0.0
 10
106.370760312751
 20
208.1282685625801
 30
0.0
 10
106.3519829926215
 20
208.1287667218561
 30
0.0
 10
106.3143657162518
 20
208.1288835579627
 30
0.0
 10
106.2955391435692
 20
208.1285002635475
 30
0.0
 10
106.2019194899093
 20
208.1243653535898
 30
0.0
 10
106.1281473640113
 20
208.1139589206267
 30
0.0
 10
106.019262698233
 20
208.0877372234718
 30
0.0
 10
105.9832633659238
 20
208.0772293649344
 30
0.0
 10
105.9297189368002
 20
208.0588301658843
 30
0.0
 10
105.911907641187
 20
208.0522410602808
 30
0.0
 10
105.8767188854865
 20
208.0383018801322
 30
0.0
 10
105.8593233408676
 20
208.0309479263658
 30
0.0
 10
105.773301997791
 20
207.9923394897328
 30
0.0
 10
105.7075348866136
 20
207.9555907315489
 30
0.0
 10
105.6128651692124
 20
207.8929971701337
 30
0.0
 10
105.5819406383289
 20
207.8708469502063
 30
0.0
 10
105.5220612765365
 20
207.8248119105077
 30
0.0
 10
105.4930056866382
 20
207.8008654659722
 30
0.0
 10
105.4082268838679
 20
207.7265448421819
 30
0.0
 10
105.3548784546434
 20
207.6737042552352
 30
0.0
 10
105.2788590303206
 20
207.5903807029886
 30
0.0
 10
105.2541900772856
 20
207.5619249463019
 30
0.0
 10
105.2061050003312
 20
207.5037559427216
 30
0.0
 10
105.1827362945821
 20
207.474096160838
 30
0.0
 10
105.1148102372666
 20
207.3839500859879
 30
0.0
 10
105.0722856098439
 20
207.3221399499092
 30
0.0
 10
105.0121021160771
 20
207.2272559863436
 30
0.0
 10
104.9926442574288
 20
207.1952645657855
 30
0.0
 10
104.9548733255297
 20
207.1306018061533
 30
0.0
 10
104.9365449149084
 20
207.0979015863426
 30
0.0
 10
104.883308234614
 20
206.9990281154904
 30
0.0
 10
104.8503118970655
 20
206.9324135057544
 30
0.0
 10
104.7580487261708
 20
206.7307870502481
 30
0.0
 10
104.7054489847388
 20
206.5940172169688
 30
0.0
 10
104.6161307412487
 20
206.3165651392773
 30
0.0
 10
104.5794406097257
 20
206.1758712559681
 30
0.0
 10
104.5505821168799
 20
206.033255137045
 30
0.0
  0
SPLINE
  5
F1
330
1F
100
AcDbEntity
  8
1
  6
Continuous
 62
     1
370
    13
100
AcDbSpline
210
0.0
220
0.0
230
1.0
 70
     8
 71
     3
 72
    29
 73
    25
 74
     0
 42
0.000000001
 43
0.0000000001
 40
0.0
 40
0.0
 40
0.0
 40
0.0
 40
0.0312500000000003
 40
0.0312500000000003
 40
0.0625000000000007
 40
0.0625000000000007
 40
0.1250000000000012
 40
0.1250000000000012
 40
0.2500000000000023
 40
0.2500000000000023
 40
0.3750000000000034
 40
0.3750000000000034
 40
0.4375000000000037
 40
0.4687500000000036
 40
0.4687500000000036
 40
0.5000000000000033
 40
0.5000000000000033
 40
0.6250000000000028
 40
0.6250000000000028
 40
0.750000000000002
 40
0.750000000000002
 40
0.875000000000001
 40
0.875000000000001
 40
1.0
 40
1.0
 40
1.0
 40
1.0
 10
108.1703222618179
 20
200.5788372336495
 30
0.0
 10
108.2283997566882
 20
200.5476329073464
 30
0.0
 10
108.2869807275517
 20
200.5164716096914
 30
0.0
 10
108.4051337480801
 20
200.45422951478
 30
0.0
 10
108.4647290084412
 20
200.4231367734936
 30
0.0
 10
108.6447949454144
 20
200.3300672329767
 30
0.0
 10
108.7665006919417
 20
200.2683205410394
 30
0.0
 10
109.136411979895
 20
200.0839072798863
 30
0.0
 10
109.3894030133582
 20
199.9620621370655
 30
0.0
 10
109.9073805046848
 20
199.720314691759
 30
0.0
 10
110.1723697650847
 20
199.6004118865177
 30
0.0
 10
110.5784584526961
 20
199.4219606452602
 30
0.0
 10
110.7836564473799
 20
199.3330879283045
 30
0.0
 10
110.9920301808806
 20
199.2447561816401
 30
0.0
 10
111.1316467975008
 20
199.1859915526793
 30
0.0
 10
111.2017551245095
 20
199.1566921495873
 30
0.0
 10
111.5532633370252
 20
199.0108279289736
 30
0.0
 10
111.8380511768807
 20
198.8959412366013
 30
0.0
 10
112.4144188994514
 20
198.6699888707232
 30
0.0
 10
112.7059989088939
 20
198.5589203639379
 30
0.0
 10
113.2957226379676
 20
198.3411613970543
 30
0.0
 10
113.5938653740255
 20
198.234466639019
 30
0.0
 10
114.1966382517936
 20
198.0264673615208
 30
0.0
 10
114.5012659654653
 20
197.9251573681852
 30
0.0
 10
114.8092001468281
 20
197.8273503361596
 30
0.0
  0
SPLINE
  5
F2
330
1F
100
AcDbEntity
  8
1
  6
Continuous
 62
     1
370
    18
100
AcDbSpline
210
0.0
220
0.0
230
1.0
 70
     8
 71
     3
 72
     8
 73
     4
 74
     0
 42
0.000000001
 43
0.0000000001
 40
0.0
 40
0.0
 40
0.0
 40
0.0
 40
1.0
 40
1.0
 40
1.0
 40
1.0
 10
245.4268327960234
 20
197.8273503361596
 30
-0.0000000000000002
 10
245.4361267493147
 20
197.8419551199031
 30
-0.0000000000000002
 10
245.445564748515
 20
197.8566422366442
 30
-0.0000000000000002
 10
245.455149579135
 20
197.8714091283706
 30
-0.0000000000000002
  0
SPLINE
  5
F3
330
1F
100
AcDbEntity
  8
1
  6
Continuous
 62
     1
370
    13
100
AcDbSpline
210
0.0
220
0.0
230
1.0
 70
     8
 71
     3
 72
    26
 73
    22
 74
     0
 42
0.000000001
 43
0.0000000001
 40
0.0
 40
0.0
 40
0.0
 40
0.0
 40
0.1083513848269228
 40
0.1083513848269228
 40
0.1720405716249995
 40
0.1720405716249995
 40
0.2357297584230761
 40
0.2357297584230761
 40
0.3631081320192298
 40
0.3631081320192298
 40
0.4904865056153835
 40
0.4904865056153835
 40
0.5541756924134604
 40
0.5541756924134604
 40
0.6178648792115372
 40
0.6178648792115372
 40
0.7452432528076914
 40
0.7452432528076914
 40
0.8726216264038457
 40
0.8726216264038457
 40
1.0
 40
1.0
 40
1.0
 40
1.0
 10
245.4551494333817
 20
197.8714089038154
 30
-0.0000000000000002
 10
245.5097310730791
 20
197.9555002432088
 30
-0.0000000000000002
 10
245.5690742081009
 20
198.0421785515128
 30
-0.0000000000000002
 10
245.6716764313512
 20
198.1831641165683
 30
-0.0000000000000002
 10
245.71147734333
 20
198.2360827775738
 30
-0.0000000000000002
 10
245.7947408241168
 20
198.3430220850455
 30
-0.0000000000000002
 10
245.8382225561449
 20
198.3970696820419
 30
-0.0000000000000002
 10
245.9744610234603
 20
198.5607692511581
 30
-0.0000000000000001
 10
246.0730122921963
 20
198.6719659000797
 30
0.0000000000000007
 10
246.2868104407264
 20
198.8978774886988
 30
0.0000000000000008
 10
246.4020538042479
 20
199.0125955817651
 30
0.0000000000000008
 10
246.5883720605673
 20
199.187123031401
 30
0.0000000000000008
 10
246.6527207044355
 20
199.2457096697584
 30
0.0000000000000008
 10
246.7860691331271
 20
199.3636991793465
 30
0.0000000000000008
 10
246.8551217051268
 20
199.4231431484925
 30
0.0000000000000008
 10
247.0685477114449
 20
199.6019178891739
 30
0.0000000000000008
 10
247.2194331214636
 20
199.7219157572433
 30
0.0000000000000008
 10
247.539096511012
 20
199.9635909167276
 30
0.0000000000000008
 10
247.7078699085936
 20
200.085268914434
 30
0.0000000000000008
 10
248.0642284079638
 20
200.3305284251412
 30
0.0000000000000009
 10
248.2518070154561
 20
200.4541095551457
 30
0.0000000000000009
 10
248.4494498796142
 20
200.5788372336496
 30
-0.0000000000000009
  0
SPLINE
  5
F4
330
1F
100
AcDbEntity
  8
1
  6
Continuous
 62
     1
370
    13
100
AcDbSpline
210
0.0
220
0.0
230
1.0
 70
     8
 71
     3
 72
    25
 73
    21
 74
     0
 42
0.000000001
 43
0.0000000001
 40
0.0
 40
0.0
 40
0.0
 40
0.0
 40
0.124999999999999
 40
0.124999999999999
 40
0.249999999999998
 40
0.249999999999998
 40
0.374999999999997
 40
0.374999999999997
 40
0.499999999999996
 40
0.499999999999996
 40
0.5312499999999963
 40
0.5312499999999963
 40
0.5624999999999966
 40
0.6249999999999969
 40
0.6249999999999969
 40
0.7499999999999979
 40
0.7499999999999979
 40
0.8749999999999989
 40
0.8749999999999989
 40
1.0
 40
1.0
 40
1.0
 40
1.0
 10
273.2615764163312
 20
206.033255137045
 30
0.0000000000000006
 10
273.1013395682305
 20
205.72529179737
 30
0.0000000000000006
 10
272.930482940541
 20
205.4269063526741
 30
0.0000000000000006
 10
272.5671017747463
 20
204.8487296467334
 30
0.0000000000000006
 10
272.374579223501
 20
204.568937325854
 30
0.0000000000000006
 10
271.9670815391147
 20
204.0276727371079
 30
0.0000000000000006
 10
271.7521096941855
 20
203.766198718413
 30
0.0000000000000005
 10
271.29849312521
 20
203.2616261564629
 30
0.0000000000000005
 10
271.059853832157
 20
203.0185246224989
 30
0.0000000000000005
 10
270.7456448628952
 20
202.7264159063105
 30
0.0000000000000005
 10
270.6819257197689
 20
202.6685139714425
 30
0.0000000000000005
 10
270.5534030322721
 20
202.5543788501555
 30
0.0000000000000005
 10
270.3589236862556
 20
202.3856050164831
 30
0.0000000000000005
 10
270.159353125396
 20
202.2240481090872
 30
0.0000000000000004
 10
269.7533778511906
 20
201.9104260784185
 30
0.0000000000000004
 10
269.473627979357
 20
201.7139808371965
 30
0.0000000000000004
 10
268.8953976074661
 20
201.3461339599328
 30
0.0000000000000004
 10
268.5969199739875
 20
201.1747299690255
 30
0.0000000000000003
 10
267.9802722695701
 20
200.8573900340515
 30
0.0000000000000003
 10
267.6621074966782
 20
200.7114484790931
 30
0.0000000000000003
 10
267.3333397700749
 20
200.5788372336496
 30
0.0000000000000003
  0
SPLINE
  5
F5
330
1F
100
AcDbEntity
  8
1
  6
Continuous
 62
     1
370
    13
100
AcDbSpline
210
0.0
220
0.0
230
1.0
 70
     8
 71
     3
 72
    54
 73
    50
 74
     0
 42
0.000000001
 43
0.0000000001
 40
0.0
 40
0.0
 40
0.0
 40
0.0
 40
0.0624999999999977
 40
0.0624999999999977
 40
0.1249999999999954
 40
0.1249999999999954
 40
0.1406249999999954
 40
0.1406249999999954
 40
0.1562499999999954
 40
0.1874999999999952
 40
0.1874999999999952
 40
0.2499999999999949
 40
0.2499999999999949
 40
0.3124999999999947
 40
0.3124999999999947
 40
0.3281249999999949
 40
0.3281249999999949
 40
0.343749999999995
 40
0.343749999999995
 40
0.3749999999999949
 40
0.3749999999999949
 40
0.4374999999999947
 40
0.4374999999999947
 40
0.4999999999999944
 40
0.4999999999999944
 40
0.5156249999999944
 40
0.5156249999999944
 40
0.5312499999999944
 40
0.5312499999999944
 40
0.5624999999999942
 40
0.5624999999999942
 40
0.624999999999994
 40
0.624999999999994
 40
0.6874999999999939
 40
0.6874999999999939
 40
0.718749999999994
 40
0.718749999999994
 40
0.7499999999999942
 40
0.7499999999999942
 40
0.7656249999999947
 40
0.7656249999999947
 40
0.7812499999999951
 40
0.8124999999999958
 40
0.8124999999999958
 40
0.8749999999999971
 40
0.8749999999999971
 40
0.9374999999999986
 40
0.9374999999999986
 40
1.0
 40
1.0
 40
1.0
 40
1.0
 10
259.1775276050312
 20
204.824103585212
 30
-0.0000000000000002
 10
259.2988902660234
 20
204.8393813580979
 30
-0.0000000000000002
 10
259.4243234192001
 20
204.8542526018242
 30
-0.0000000000000002
 10
259.6843263993476
 20
204.883028192927
 30
-0.0000000000000002
 10
259.8188922536295
 20
204.8969330391137
 30
-0.0000000000000002
 10
259.9936187138748
 20
204.9135910942366
 30
-0.0000000000000002
 10
260.0289161463539
 20
204.916888667609
 30
-0.0000000000000002
 10
260.0999574454942
 20
204.92338694663
 30
-0.0000000000000002
 10
260.2072507954994
 20
204.9329951748235
 30
-0.0000000000000002
 10
260.3167856187983
 20
204.9421734736917
 30
-0.0000000000000002
 10
260.5389870558387
 20
204.9599206407942
 30
-0.0000000000000001
 10
260.6912883978614
 20
204.9709412007922
 30
-0.0000000000000001
 10
261.0051673772298
 20
204.9911331086209
 30
-0.0000000000000001
 10
261.166740472102
 20
205.0003053897597
 30
-0.0000000000000001
 10
261.375295837845
 20
205.0104330774877
 30
-0.0000000000000001
 10
261.4173373818084
 20
205.0123915293657
 30
-0.0000000000000001
 10
261.5021058346874
 20
205.0161687905727
 30
-0.0000000000000001
 10
261.5448775162583
 20
205.0179894039887
 30
-0.0000000000000001
 10
261.6739638709864
 20
205.0232209632235
 30
-0.0000000000000001
 10
261.7605023467502
 20
205.0263802163865
 30
-0.0000000000000001
 10
262.0215818012419
 20
205.0348530291574
 30
-0.0000000000000001
 10
262.1975843337023
 20
205.0391630158259
 30
0.0
 10
262.5536565713616
 20
205.044971914735
 30
0.0
 10
262.7337255579052
 20
205.0464712872156
 30
0.0
 10
262.9615128922177
 20
205.0464744407439
 30
0.0
 10
263.0070915012573
 20
205.0463812422008
 30
0.0
 10
263.0981034748764
 20
205.0460081264058
 30
0.0
 10
263.1435664822939
 20
205.0457282163506
 30
0.0
 10
263.2798270793232
 20
205.0446096594837
 30
0.0
 10
263.3706866301049
 20
205.0434878029475
 30
0.0
 10
263.6401460076621
 20
205.0390649781839
 30
0.0
 10
263.816309410924
 20
205.034709857114
 30
0.0000000000000001
 10
264.1622667199212
 20
205.0234399007409
 30
0.0000000000000001
 10
264.3320587908036
 20
205.016524354212
 30
0.0000000000000001
 10
264.582279477074
 20
205.0043763276966
 30
0.0000000000000001
 10
264.6649406790908
 20
205.0000308113976
 30
0.0000000000000001
 10
264.8288118853696
 20
204.9907677563255
 30
0.0000000000000001
 10
264.9096110231762
 20
204.9858733549272
 30
0.0000000000000001
 10
265.0290881475206
 20
204.9781688851199
 30
0.0000000000000001
 10
265.0686452717906
 20
204.9755388762077
 30
0.0000000000000001
 10
265.1469360552387
 20
204.9701804389323
 30
0.0000000000000001
 10
265.2632426412801
 20
204.961988440337
 30
0.0000000000000001
 10
265.3762990196851
 20
204.9533552938886
 30
0.0000000000000002
 10
265.5983958535911
 20
204.9355518190284
 30
0.0000000000000002
 10
265.7411175377183
 20
204.9229682319898
 30
0.0000000000000002
 10
266.0172181729783
 20
204.8965944204953
 30
0.0000000000000002
 10
266.1505927570108
 20
204.8828035638768
 30
0.0000000000000002
 10
266.4090059690155
 20
204.8541908431668
 30
0.0000000000000002
 10
266.5340419113784
 20
204.8393685879052
 30
0.0000000000000002
 10
266.6553031292756
 20
204.824103585212
 30
0.0000000000000002
  0
SPLINE
  5
F6
330
1F
100
AcDbEntity
  8
1
  6
Continuous
 62
     1
370
    13
100
AcDbSpline
210
0.0
220
0.0
230
1.0
 70
     8
 71
     3
 72
    24
 73
    20
 74
     0
 42
0.000000001
 43
0.0000000001
 40
0.0
 40
0.0
 40
0.0
 40
0.0
 40
0.1249999999999998
 40
0.1249999999999998
 40
0.2499999999999996
 40
0.2499999999999996
 40
0.3749999999999993
 40
0.3749999999999993
 40
0.4374999999999991
 40
0.4374999999999991
 40
0.4999999999999988
 40
0.4999999999999988
 40
0.6249999999999991
 40
0.6249999999999991
 40
0.7499999999999994
 40
0.7499999999999994
 40
0.8749999999999998
 40
0.8749999999999998
 40
1.0
 40
1.0
 40
1.0
 40
1.0
 10
266.6553031292756
 20
204.824103585212
 30
0.0000000000000002
 10
266.9163065936542
 20
204.9041077384891
 30
0.0000000000000002
 10
267.1712480714223
 20
204.9923277837046
 30
0.0000000000000003
 10
267.6694978751617
 20
205.1853373627291
 30
0.0000000000000003
 10
267.9128051937523
 20
205.2901263320925
 30
0.0000000000000003
 10
268.3880374082475
 20
205.5169001391376
 30
0.0000000000000003
 10
268.6199621505763
 20
205.6388823604327
 30
0.0000000000000003
 10
268.9593361508113
 20
205.8356220209622
 30
0.0000000000000004
 10
269.0710402638164
 20
205.9035007043719
 30
0.0000000000000004
 10
269.2915902417538
 20
206.0440601021455
 30
0.0000000000000004
 10
269.4004763176975
 20
206.1167687676083
 30
0.0000000000000004
 10
269.7225526163774
 20
206.342300472367
 30
0.0000000000000004
 10
269.9284763383357
 20
206.5006181874317
 30
0.0000000000000004
 10
270.3232902547612
 20
206.8339729028181
 30
0.0000000000000005
 10
270.5121795773247
 20
207.0090081521662
 30
0.0000000000000005
 10
270.8731120136751
 20
207.3770783191099
 30
0.0000000000000005
 10
271.0451555454378
 20
207.5701098472047
 30
0.0000000000000005
 10
271.3722278748236
 20
207.9760175214602
 30
0.0000000000000005
 10
271.5272583943819
 20
208.1888883432659
 30
0.0000000000000005
 10
271.6735034482556
 20
208.4129509009173
 30
0.0000000000000005
  0
SPLINE
  5
F7
330
1F
100
AcDbEntity
  8
1
  6
Continuous
 62
     1
370
    13
100
AcDbSpline
210
0.0
220
0.0
230
1.0
 70
     8
 71
     3
 72
    48
 73
    44
 74
     0
 42
0.000000001
 43
0.0000000001
 40
0.0
 40
0.0
 40
0.0
 40
0.0
 40
0.1249999999999946
 40
0.1249999999999946
 40
0.2499999999999892
 40
0.2499999999999892
 40
0.2812499999999879
 40
0.2812499999999879
 40
0.3124999999999872
 40
0.3124999999999872
 40
0.3749999999999862
 40
0.3749999999999862
 40
0.4374999999999852
 40
0.4374999999999852
 40
0.4999999999999841
 40
0.4999999999999841
 40
0.5312499999999841
 40
0.5312499999999841
 40
0.5624999999999841
 40
0.5624999999999841
 40
0.624999999999986
 40
0.624999999999986
 40
0.6562499999999862
 40
0.6562499999999862
 40
0.6718749999999877
 40
0.6718749999999877
 40
0.6874999999999891
 40
0.6874999999999891
 40
0.749999999999991
 40
0.749999999999991
 40
0.7656249999999913
 40
0.7656249999999913
 40
0.7812499999999917
 40
0.812499999999992
 40
0.812499999999992
 40
0.8749999999999913
 40
0.8749999999999913
 40
0.8906249999999923
 40
0.8906249999999923
 40
0.9062499999999933
 40
0.9374999999999963
 40
0.9374999999999963
 40
1.0
 40
1.0
 40
1.0
 40
1.0
 10
252.5712543179756
 20
206.033255137045
 30
-0.0000000000000006
 10
252.5268108114991
 20
206.17582994516
 30
-0.0000000000000006
 10
252.4857566642567
 20
206.3165294449625
 30
-0.0000000000000006
 10
252.4104682220666
 20
206.5940806618471
 30
-0.0000000000000006
 10
252.3762395698874
 20
206.7309441031592
 30
-0.0000000000000006
 10
252.3374984111718
 20
206.8991372623597
 30
-0.0000000000000006
 10
252.3299511337125
 20
206.9326292926424
 30
-0.0000000000000006
 10
252.3152468773868
 20
206.9992969758766
 30
-0.0000000000000006
 10
252.3080787184733
 20
207.0325261477357
 30
-0.0000000000000006
 10
252.2872224238399
 20
207.1312890794299
 30
-0.0000000000000007
 10
252.2742168675912
 20
207.1957373904204
 30
-0.0000000000000007
 10
252.2497601195489
 20
207.3215270903804
 30
-0.0000000000000007
 10
252.2383101211432
 20
207.3828709427763
 30
-0.0000000000000007
 10
252.2166504224774
 20
207.5019445465564
 30
-0.0000000000000007
 10
252.206442901038
 20
207.5596789357116
 30
-0.0000000000000007
 10
252.1917357235935
 20
207.6429708265849
 30
-0.0000000000000007
 10
252.1869328851315
 20
207.6701804991324
 30
-0.0000000000000007
 10
252.1774530341
 20
207.7233477667169
 30
-0.0000000000000007
 10
252.1727679666575
 20
207.749346801116
 30
-0.0000000000000007
 10
252.1589377000952
 20
207.8242762392779
 30
-0.0000000000000007
 10
252.1499725013256
 20
207.8704555055465
 30
-0.0000000000000007
 10
252.1362603150576
 20
207.9329169209813
 30
-0.0000000000000007
 10
252.1316438551345
 20
207.9525983968242
 30
-0.0000000000000007
 10
252.1245507359046
 20
207.980220248952
 30
-0.0000000000000007
 10
252.1221581377748
 20
207.9891104213308
 30
-0.0000000000000007
 10
252.1172977881524
 20
208.0062194449645
 30
-0.0000000000000007
 10
252.1148313696404
 20
208.0144310630457
 30
-0.0000000000000007
 10
252.1023635785483
 20
208.0534175285634
 30
-0.0000000000000007
 10
252.0918822389244
 20
208.0782521767642
 30
-0.0000000000000007
 10
252.0774757492905
 20
208.1005462855207
 30
-0.0000000000000007
 10
252.0745241881923
 20
208.104570762501
 30
-0.0000000000000007
 10
252.0685332371242
 20
208.1116612151103
 30
-0.0000000000000007
 10
252.0593971164861
 20
208.1208925739015
 30
-0.0000000000000007
 10
252.0497635867779
 20
208.1260006883398
 30
-0.0000000000000007
 10
252.0297297643567
 20
208.1309589842883
 30
-0.0000000000000007
 10
252.0153441994407
 20
208.1272531697547
 30
-0.0000000000000007
 10
251.9958519781499
 20
208.1146646040662
 30
-0.0000000000000007
 10
251.9918770506299
 20
208.1117461620852
 30
-0.0000000000000007
 10
251.9838441152072
 20
208.1051981752832
 30
-0.0000000000000007
 10
251.9716449146679
 20
208.0942941754708
 30
-0.0000000000000007
 10
251.9589954015202
 20
208.080349012588
 30
-0.0000000000000007
 10
251.9331051876109
 20
208.048873869466
 30
-0.0000000000000007
 10
251.9150551297117
 20
208.0231282890984
 30
-0.0000000000000007
 10
251.8962724137461
 20
207.9936125925809
 30
-0.0000000000000007
  0
SPLINE
  5
F8
330
1F
100
AcDbEntity
  8
1
  6
Continuous
 62
     1
370
    13
100
AcDbSpline
210
0.0
220
0.0
230
1.0
 70
     8
 71
     3
 72
    48
 73
    44
 74
     0
 42
0.000000001
 43
0.0000000001
 40
0.0
 40
0.0
 40
0.0
 40
0.0
 40
0.0624999999999996
 40
0.0624999999999996
 40
0.1249999999999993
 40
0.1249999999999993
 40
0.1562499999999982
 40
0.1562499999999982
 40
0.1718749999999975
 40
0.1718749999999975
 40
0.1874999999999969
 40
0.1874999999999969
 40
0.2499999999999962
 40
0.2499999999999962
 40
0.2812499999999961
 40
0.2812499999999961
 40
0.2968749999999957
 40
0.2968749999999957
 40
0.3124999999999953
 40
0.3124999999999953
 40
0.3749999999999932
 40
0.3749999999999932
 40
0.4062499999999921
 40
0.4062499999999921
 40
0.4374999999999909
 40
0.4374999999999909
 40
0.4999999999999902
 40
0.4999999999999902
 40
0.5312499999999897
 40
0.5312499999999897
 40
0.5624999999999893
 40
0.5624999999999893
 40
0.6249999999999882
 40
0.6249999999999882
 40
0.6562499999999887
 40
0.6562499999999887
 40
0.6874999999999891
 40
0.6874999999999891
 40
0.7499999999999909
 40
0.7499999999999909
 40
0.8749999999999954
 40
0.8749999999999954
 40
1.0
 40
1.0
 40
1.0
 40
1.0
 10
273.9365583205607
 20
207.9936125925809
 30
0.0000000000000007
 10
273.917822942718
 20
208.0230539006194
 30
0.0000000000000007
 10
273.8998406298759
 20
208.0487041163779
 30
0.0000000000000007
 10
273.8654936459718
 20
208.0905196293562
 30
0.0000000000000007
 10
273.8491316207621
 20
208.1066937038876
 30
0.0000000000000007
 10
273.825814596531
 20
208.121932892121
 30
0.0000000000000007
 10
273.818229139593
 20
208.125498785603
 30
0.0000000000000007
 10
273.807277790588
 20
208.1282685625802
 30
0.0000000000000007
 10
273.8036933881389
 20
208.1287667218561
 30
0.0000000000000007
 10
273.7966514421669
 20
208.1288835579628
 30
0.0000000000000007
 10
273.7931966840166
 20
208.1285002635475
 30
0.0000000000000007
 10
273.776341050063
 20
208.1243653535898
 30
0.0000000000000007
 10
273.7641035746897
 20
208.1139589206267
 30
0.0000000000000007
 10
273.7470384293748
 20
208.0877372234718
 30
0.0000000000000007
 10
273.7415638347755
 20
208.0772293649344
 30
0.0000000000000007
 10
273.7335884882946
 20
208.0588301658844
 30
0.0000000000000007
 10
273.7309637450863
 20
208.0522410602809
 30
0.0000000000000007
 10
273.7258188338024
 20
208.0383018801322
 30
0.0000000000000007
 10
273.7232958331572
 20
208.0309479263658
 30
0.0000000000000007
 10
273.7108812480888
 20
207.9923394897329
 30
0.0000000000000007
 10
273.7015826775962
 20
207.955590731549
 30
0.0000000000000007
 10
273.6877905574055
 20
207.8929971701338
 30
0.0000000000000007
 10
273.6832149076008
 20
207.8708469502064
 30
0.0000000000000007
 10
273.6741155259854
 20
207.8248119105077
 30
0.0000000000000007
 10
273.669577506041
 20
207.8008654659722
 30
0.0000000000000007
 10
273.6558434855953
 20
207.726544842182
 30
0.0000000000000007
 10
273.6465217290876
 20
207.6737042552353
 30
0.0000000000000007
 10
273.6318089658384
 20
207.5903807029886
 30
0.0000000000000007
 10
273.6267846548163
 20
207.5619249463019
 30
0.0000000000000007
 10
273.6164314787982
 20
207.5037559427216
 30
0.0000000000000007
 10
273.6111119315245
 20
207.474096160838
 30
0.0000000000000007
 10
273.594722114681
 20
207.3839500859879
 30
0.0000000000000007
 10
273.5831885032104
 20
207.3221399499092
 30
0.0000000000000007
 10
273.5647425209978
 20
207.2272559863436
 30
0.0000000000000007
 10
273.5584037738199
 20
207.1952645657855
 30
0.0000000000000007
 10
273.5453151592255
 20
207.1306018061533
 30
0.0000000000000007
 10
273.5385592166378
 20
207.0979015863426
 30
0.0000000000000007
 10
273.5176749806841
 20
206.9990281154905
 30
0.0000000000000006
 10
273.5029990229442
 20
206.9324135057544
 30
0.0000000000000006
 10
273.4565510972361
 20
206.7307870502482
 30
0.0000000000000006
 10
273.4223454932574
 20
206.5940172169688
 30
0.0000000000000006
 10
273.347083561406
 20
206.3165651392773
 30
0.0000000000000006
 10
273.3060328002381
 20
206.1758712559681
 30
0.0000000000000006
 10
273.2615764163312
 20
206.033255137045
 30
0.0000000000000006
  0
SPLINE
  5
F9
330
1F
100
AcDbEntity
  8
1
  6
Continuous
 62
     1
370
    13
100
AcDbSpline
210
0.0
220
0.0
230
1.0
 70
     8
 71
     3
 72
    30
 73
    26
 74
     0
 42
0.000000001
 43
0.0000000001
 40
0.0
 40
0.0
 40
0.0
 40
0.0
 40
0.1249999999999999
 40
0.1249999999999999
 40
0.2499999999999998
 40
0.2499999999999998
 40
0.3749999999999997
 40
0.3749999999999997
 40
0.3906250000000001
 40
0.3906250000000001
 40
0.4062500000000005
 40
0.4375000000000004
 40
0.4999999999999998
 40
0.4999999999999998
 40
0.6249999999999994
 40
0.6249999999999994
 40
0.7499999999999991
 40
0.7499999999999991
 40
0.8749999999999988
 40
0.8749999999999988
 40
0.9062499999999992
 40
0.9062499999999992
 40
0.9374999999999996
 40
0.9374999999999996
 40
1.0
 40
1.0
 40
1.0
 40
1.0
 10
258.4994909642319
 20
200.5788372336496
 30
-0.0000000000000003
 10
258.1745095497708
 20
200.7099212380405
 30
-0.0000000000000003
 10
257.8586435092527
 20
200.854538162552
 30
-0.0000000000000003
 10
257.2442148838725
 20
201.1701833445271
 30
-0.0000000000000003
 10
256.9456551625847
 20
201.3412146384525
 30
-0.0000000000000004
 10
256.3653387689067
 20
201.7097737532247
 30
-0.0000000000000004
 10
256.0835833502645
 20
201.9073018315428
 30
-0.0000000000000004
 10
255.7759796679869
 20
202.1448555804428
 30
-0.0000000000000004
 10
255.7419339110916
 20
202.1714628319419
 30
-0.0000000000000004
 10
255.6742848126181
 20
202.2249604818876
 30
-0.0000000000000004
 10
255.5734052942436
 20
202.3056850217552
 30
-0.0000000000000004
 10
255.3421338127474
 20
202.4973707617049
 30
-0.0000000000000005
 10
255.1508070292219
 20
202.6673223435381
 30
-0.0000000000000005
 10
254.777028940006
 20
203.0146533140235
 30
-0.0000000000000005
 10
254.5396613749038
 20
203.2560976125807
 30
-0.0000000000000005
 10
254.0872375094997
 20
203.7585671437855
 30
-0.0000000000000005
 10
253.8721849217116
 20
204.0195944578657
 30
-0.0000000000000006
 10
253.4635504850179
 20
204.5614421362904
 30
-0.0000000000000006
 10
253.2699707618345
 20
204.8422635047827
 30
-0.0000000000000006
 10
253.0411319111444
 20
205.2060185808867
 30
-0.0000000000000006
 10
252.9960218051473
 20
205.2794068636567
 30
-0.0000000000000006
 10
252.9071131863962
 20
205.4274702441232
 30
-0.0000000000000006
 10
252.8633725419717
 20
205.5020502679885
 30
-0.0000000000000006
 10
252.734412928411
 20
205.7271839945344
 30
-0.0000000000000006
 10
252.6513921511111
 20
205.8792361643851
 30
-0.0000000000000006
 10
252.5712543179756
 20
206.033255137045
 30
-0.0000000000000006
  0
SPLINE
  5
FA
330
1F
100
AcDbEntity
  8
1
  6
Continuous
 62
     1
370
    13
100
AcDbSpline
210
0.0
220
0.0
230
1.0
 70
     8
 71
     3
 72
    29
 73
    25
 74
     0
 42
0.000000001
 43
0.0000000001
 40
0.0
 40
0.0
 40
0.0
 40
0.0
 40
0.0312500000000003
 40
0.0312500000000003
 40
0.0625000000000007
 40
0.0625000000000007
 40
0.1250000000000012
 40
0.1250000000000012
 40
0.2500000000000023
 40
0.2500000000000023
 40
0.3750000000000034
 40
0.3750000000000034
 40
0.4375000000000037
 40
0.4687500000000036
 40
0.4687500000000036
 40
0.5000000000000033
 40
0.5000000000000033
 40
0.6250000000000028
 40
0.6250000000000028
 40
0.750000000000002
 40
0.750000000000002
 40
0.875000000000001
 40
0.875000000000001
 40
1.0
 40
1.0
 40
1.0
 40
1.0
 10
277.3833808546926
 20
200.5788372336496
 30
0.0000000000000009
 10
277.4328270762423
 20
200.5476329073464
 30
-0.0000000000000009
 10
277.4816883053028
 20
200.5164716096914
 30
-0.0000000000000009
 10
277.57825652203
 20
200.45422951478
 30
-0.0000000000000009
 10
277.6259815528294
 20
200.4231367734936
 30
-0.0000000000000009
 10
277.7673018725123
 20
200.3300672329768
 30
-0.0000000000000009
 10
277.859012230999
 20
200.2683205410394
 30
-0.0000000000000009
 10
278.1268931643534
 20
200.0839072798864
 30
-0.0000000000000008
 10
278.2958235511587
 20
199.9620621370655
 30
-0.0000000000000008
 10
278.6154472508405
 20
199.720314691759
 30
-0.0000000000000008
 10
278.7661355728387
 20
199.6004118865177
 30
-0.0000000000000008
 10
278.9790929637131
 20
199.4219606452602
 30
-0.0000000000000008
 10
279.0823005057426
 20
199.3330879283046
 30
-0.0000000000000008
 10
279.1807001666167
 20
199.2447561816401
 30
-0.0000000000000008
 10
279.2452418988095
 20
199.1859915526793
 30
-0.0000000000000008
 10
279.2769598563576
 20
199.1566921495874
 30
-0.0000000000000008
 10
279.4326044433041
 20
199.0108279289737
 30
-0.0000000000000008
 10
279.5479290448536
 20
198.8959412366014
 30
-0.0000000000000008
 10
279.7616118076889
 20
198.6699888707232
 30
-0.0000000000000007
 10
279.8599662630282
 20
198.5589203639379
 30
0.0000000000000001
 10
280.0410790029636
 20
198.3411613970543
 30
0.0000000000000002
 10
280.1238353748861
 20
198.234466639019
 30
0.0000000000000002
 10
280.2751737874546
 20
198.0264673615208
 30
0.0000000000000002
 10
280.3437570997216
 20
197.9251573681852
 30
0.0000000000000002
 10
280.4059979382833
 20
197.8273503361596
 30
0.0000000000000002
  0
SPLINE
  5
FB
330
1F
100
AcDbEntity
  8
1
  6
Continuous
 62
     1
370
    13
100
AcDbSpline
210
0.0
220
0.0
230
1.0
 70
     8
 71
     3
 72
    30
 73
    26
 74
     0
 42
0.000000001
 43
0.0000000001
 40
0.0
 40
0.0
 40
0.0
 40
0.0
 40
0.0625000000000005
 40
0.0625000000000005
 40
0.0937500000000011
 40
0.0937500000000011
 40
0.1250000000000016
 40
0.1250000000000016
 40
0.2500000000000011
 40
0.2500000000000011
 40
0.3750000000000005
 40
0.3750000000000005
 40
0.5
 40
0.5
 40
0.5624999999999997
 40
0.5624999999999997
 40
0.5937499999999999
 40
0.5937499999999999
 40
0.6250000000000002
 40
0.6250000000000002
 40
0.7500000000000001
 40
0.7500000000000001
 40
0.8750000000000001
 40
0.8750000000000001
 40
1.0
 40
1.0
 40
1.0
 40
1.0
 10
254.1593272860511
 20
208.4129509009173
 30
-0.0000000000000005
 10
254.2323954373917
 20
208.3010029311324
 30
-0.0000000000000005
 10
254.30795616955
 20
208.1914024078687
 30
-0.0000000000000005
 10
254.4250380391601
 20
208.0303802700273
 30
-0.0000000000000005
 10
254.4647255741923
 20
207.9772224276832
 30
-0.0000000000000005
 10
254.5451472830736
 20
207.8722747572824
 30
-0.0000000000000005
 10
254.5858707956584
 20
207.8204956417759
 30
-0.0000000000000005
 10
254.792026341303
 20
207.5649619068324
 30
-0.0000000000000005
 10
254.9650572306849
 20
207.3712615698124
 30
-0.0000000000000005
 10
255.3269357218277
 20
207.0029841429421
 30
-0.0000000000000005
 10
255.5157847596753
 20
206.8284126819678
 30
-0.0000000000000005
 10
255.9092634935753
 20
206.4967695185942
 30
-0.0000000000000004
 10
256.1138932933636
 20
206.3397011048836
 30
-0.0000000000000004
 10
256.4328953222372
 20
206.1164243112411
 30
-0.0000000000000004
 10
256.5412414769523
 20
206.0440570909283
 30
-0.0000000000000004
 10
256.7068308698247
 20
205.9385283735986
 30
-0.0000000000000004
 10
256.7625392010885
 20
205.9038560549615
 30
-0.0000000000000004
 10
256.8749904079393
 20
205.8355111424367
 30
-0.0000000000000004
 10
256.9317298167225
 20
205.801843121811
 30
-0.0000000000000004
 10
257.2166979513007
 20
205.6367408389352
 30
-0.0000000000000003
 10
257.4497789281012
 20
205.5143480817052
 30
-0.0000000000000003
 10
257.9260268264007
 20
205.2874396471996
 30
-0.0000000000000003
 10
258.1691941355204
 20
205.1829280601148
 30
-0.0000000000000003
 10
258.6656818371395
 20
204.9908814686015
 30
-0.0000000000000003
 10
258.9190019120951
 20
204.9033482389677
 30
-0.0000000000000002
 10
259.1775276050312
 20
204.824103585212
 30
-0.0000000000000002
  0
SPLINE
  5
FC
330
1F
100
AcDbEntity
  8
1
  6
Continuous
 62
     1
370
    13
100
AcDbSpline
210
0.0
220
0.0
230
1.0
 70
     8
 71
     3
 72
    48
 73
    44
 74
     0
 42
0.000000001
 43
0.0000000001
 40
0.0
 40
0.0
 40
0.0
 40
0.0
 40
0.0625000000000028
 40
0.1250000000000056
 40
0.1250000000000056
 40
0.1875000000000084
 40
0.1875000000000084
 40
0.203125000000009
 40
0.203125000000009
 40
0.2187500000000096
 40
0.2187500000000096
 40
0.2500000000000086
 40
0.2500000000000086
 40
0.2812500000000075
 40
0.2812500000000075
 40
0.3125000000000066
 40
0.3125000000000066
 40
0.3750000000000043
 40
0.3750000000000043
 40
0.4375000000000021
 40
0.4375000000000021
 40
0.4999999999999998
 40
0.4999999999999998
 40
0.5156249999999992
 40
0.5156249999999992
 40
0.5312499999999987
 40
0.5312499999999987
 40
0.546874999999998
 40
0.546874999999998
 40
0.5624999999999973
 40
0.5624999999999973
 40
0.6249999999999972
 40
0.6249999999999972
 40
0.7499999999999974
 40
0.7499999999999974
 40
0.7812499999999976
 40
0.7968749999999978
 40
0.7968749999999978
 40
0.8124999999999979
 40
0.8124999999999979
 40
0.8749999999999983
 40
0.8749999999999983
 40
1.0
 40
1.0
 40
1.0
 40
1.0
 10
271.6735034482556
 20
208.4129509009173
 30
0.0000000000000005
 10
271.7489252646894
 20
208.5285049292092
 30
0.0000000000000005
 10
271.8937359563218
 20
208.7554284508392
 30
0.0000000000000005
 10
272.0268034472322
 20
208.9740142919384
 30
0.0000000000000006
 10
272.1541033815028
 20
209.1882952401511
 30
0.0000000000000006
 10
272.2148692504085
 20
209.2932840381013
 30
0.0000000000000006
 10
272.2872572137308
 20
209.4216418044129
 30
0.0000000000000006
 10
272.3015562355769
 20
209.447169004709
 30
0.0000000000000006
 10
272.3297976394587
 20
209.4979281391731
 30
0.0000000000000006
 10
272.3437412324475
 20
209.5231626870284
 30
0.0000000000000006
 10
272.3848852609545
 20
209.5981323704098
 30
0.0000000000000006
 10
272.4114525141379
 20
209.6472295086239
 30
0.0000000000000006
 10
272.4629128294233
 20
209.7436345048616
 30
0.0000000000000006
 10
272.487848891852
 20
209.7910269795905
 30
0.0000000000000006
 10
272.5357323426145
 20
209.8832838614953
 30
0.0000000000000006
 10
272.5587158188627
 20
209.9282132786725
 30
0.0000000000000006
 10
272.6249564065694
 20
210.0594591958038
 30
0.0000000000000006
 10
272.6655073834887
 20
210.1422403727859
 30
0.0000000000000006
 10
272.7401591892694
 20
210.298473975858
 30
0.0000000000000006
 10
272.7742584714656
 20
210.3719250948779
 30
0.0000000000000006
 10
272.8366710801783
 20
210.5093891736056
 30
0.0000000000000006
 10
272.8649833359228
 20
210.5734013148993
 30
0.0000000000000006
 10
272.8971340549955
 20
210.6473380323449
 30
0.0000000000000006
 10
272.9034021076665
 20
210.661821047419
 30
0.0000000000000006
 10
272.9156230852889
 20
210.6901723717287
 30
0.0000000000000006
 10
272.9215804386689
 20
210.7040510760591
 30
0.0000000000000006
 10
272.9331556508589
 20
210.7311091059589
 30
0.0000000000000006
 10
272.9387761525875
 20
210.7442944641347
 30
0.0000000000000006
 10
272.9496965467282
 20
210.7699809316711
 30
0.0000000000000006
 10
272.9549999791568
 20
210.782490417643
 30
0.0000000000000006
 10
272.9806948579877
 20
210.8432066141512
 30
0.0000000000000006
 10
272.9986330058704
 20
210.885939834006
 30
0.0000000000000006
 10
273.0460899306819
 20
210.9976024949682
 30
0.0000000000000006
 10
273.0693108944934
 20
211.050031201292
 30
0.0000000000000006
 10
273.0916235797043
 20
211.0903293762726
 30
0.0000000000000006
 10
273.0978064490543
 20
211.1005211862707
 30
0.0000000000000006
 10
273.1033093224075
 20
211.1079193644576
 30
0.0000000000000006
 10
273.1068356490077
 20
211.1122363161346
 30
0.0000000000000006
 10
273.1085285378416
 20
211.1140877372093
 30
0.0000000000000006
 10
273.1166376256465
 20
211.1218032247783
 30
0.0000000000000006
 10
273.1220105987709
 20
211.1230712973708
 30
0.0000000000000006
 10
273.1356583877503
 20
211.1133885625391
 30
0.0000000000000006
 10
273.1415139472693
 20
211.0889777515925
 30
0.0000000000000006
 10
273.1456874191763
 20
211.0494025519852
 30
0.0000000000000006
  0
SPLINE
  5
FD
330
1F
100
AcDbEntity
  8
1
  6
Continuous
 62
     1
370
    13
100
AcDbSpline
210
0.0
220
0.0
230
1.0
 70
     8
 71
     3
 72
     8
 73
     4
 74
     0
 42
0.000000001
 43
0.0000000001
 40
0.0
 40
0.0
 40
0.0
 40
0.0
 40
1.0
 40
1.0
 40
1.0
 40
1.0
 10
273.1456874191763
 20
211.0494025519852
 30
0.0000000000000006
 10
273.1608377248093
 20
210.9057388631168
 30
0.0000000000000006
 10
273.1665586359082
 20
210.7882288774434
 30
0.0000000000000006
 10
273.1664118463614
 20
210.6925125181741
 30
0.0000000000000006
  0
SPLINE
  5
FE
330
1F
100
AcDbEntity
  8
1
  6
Continuous
 62
     1
370
    13
100
AcDbSpline
210
0.0
220
0.0
230
1.0
 70
     8
 71
     3
 72
    10
 73
     6
 74
     0
 42
0.000000001
 43
0.0000000001
 40
0.0
 40
0.0
 40
0.0
 40
0.0
 40
0.1813984664541238
 40
0.1813984664541238
 40
1.0
 40
1.0
 40
1.0
 40
1.0
 10
252.6664272103023
 20
210.6891994109887
 30
-0.0000000000000006
 10
252.666457898552
 20
210.6787482349415
 30
-0.0000000000000006
 10
252.6665586514292
 20
210.6685589054578
 30
-0.0000000000000006
 10
252.6674741615275
 20
210.6137993611272
 30
-0.0000000000000006
 10
252.669546153492
 20
210.5741793384859
 30
-0.0000000000000004
 10
252.672463302058
 20
210.5391757526988
 30
-0.0000000000000002
  0
SPLINE
  5
FF
330
1F
100
AcDbEntity
  8
1
  6
Continuous
 62
     1
370
    13
100
AcDbSpline
210
0.0
220
0.0
230
1.0
 70
     8
 71
     3
 72
    12
 73
     8
 74
     0
 42
0.000000001
 43
0.0000000001
 40
0.0
 40
0.0
 40
0.0
 40
0.0
 40
0.4645972122115047
 40
0.4645972122115047
 40
0.7322986061057524
 40
0.7322986061057524
 40
1.0
 40
1.0
 40
1.0
 40
1.0
 10
252.6664184252538
 20
210.6925150582771
 30
-0.0000000000000006
 10
252.6663483784353
 20
210.7369594714179
 30
-0.0000000000000006
 10
252.6675380626322
 20
210.7861103962555
 30
-0.0000000000000006
 10
252.6719858424395
 20
210.8717306090406
 30
-0.0000000000000006
 10
252.6741534892463
 20
210.9047501410683
 30
-0.0000000000000006
 10
252.6797057749636
 20
210.9743713147298
 30
-0.0000000000000006
 10
252.6830893465628
 20
211.0109605500171
 30
-0.0000000000000006
 10
252.6871433151302
 20
211.049402551985
 30
-0.0000000000000006
  0
SPLINE
  5
100
330
1F
100
AcDbEntity
  8
1
  6
Continuous
 62
     1
370
    13
100
AcDbSpline
210
0.0
220
0.0
230
1.0
 70
     8
 71
     3
 72
    42
 73
    38
 74
     0
 42
0.000000001
 43
0.0000000001
 40
0.0
 40
0.0
 40
0.0
 40
0.0
 40
0.1250000000000004
 40
0.1250000000000004
 40
0.2500000000000008
 40
0.2500000000000008
 40
0.2656250000000008
 40
0.2656250000000008
 40
0.2812500000000008
 40
0.2812500000000008
 40
0.3125000000000001
 40
0.3749999999999987
 40
0.3749999999999987
 40
0.4374999999999972
 40
0.4374999999999972
 40
0.4999999999999958
 40
0.4999999999999958
 40
0.5312499999999949
 40
0.5312499999999949
 40
0.5624999999999939
 40
0.5624999999999939
 40
0.6249999999999918
 40
0.6249999999999918
 40
0.6874999999999898
 40
0.6874999999999898
 40
0.7187499999999892
 40
0.734374999999989
 40
0.734374999999989
 40
0.7499999999999887
 40
0.7499999999999887
 40
0.8124999999999913
 40
0.8749999999999939
 40
0.9374999999999966
 40
0.9374999999999966
 40
0.9687499999999983
 40
0.9687499999999983
 40
1.0
 40
1.0
 40
1.0
 40
1.0
 10
252.6871433151305
 20
211.0494025519852
 30
-0.0000000000000006
 10
252.691314574028
 20
211.0889567665976
 30
-0.0000000000000006
 10
252.6971615958566
 20
211.113263183869
 30
-0.0000000000000006
 10
252.7152221932458
 20
211.1263111644602
 30
-0.0000000000000006
 10
252.7274102435681
 20
211.1150827518418
 30
-0.0000000000000006
 10
252.7474837939342
 20
211.0790118160368
 30
-0.0000000000000006
 10
252.7498041585465
 20
211.0746772676156
 30
-0.0000000000000006
 10
252.7546375477
 20
211.0653405924892
 30
-0.0000000000000006
 10
252.7571532518299
 20
211.0603328969252
 30
-0.0000000000000006
 10
252.7649850071911
 20
211.0443369164988
 30
-0.0000000000000006
 10
252.7817876163225
 20
211.0084579637703
 30
-0.0000000000000006
 10
252.802369377673
 20
210.9608242987503
 30
-0.0000000000000006
 10
252.8339040788807
 20
210.8866359976994
 30
-0.0000000000000006
 10
252.8517166368124
 20
210.8442052486228
 30
-0.0000000000000006
 10
252.8922801014998
 20
210.7483393480166
 30
-0.0000000000000006
 10
252.9150293462876
 20
210.6949066567624
 30
-0.0000000000000006
 10
252.9536051396195
 20
210.6061356100598
 30
-0.0000000000000006
 10
252.9672392952417
 20
210.5750355566066
 30
-0.0000000000000006
 10
252.9958292989353
 20
210.5105655476963
 30
-0.0000000000000006
 10
253.0108090431274
 20
210.4771394533259
 30
-0.0000000000000006
 10
253.0579094291223
 20
210.3733549722499
 30
-0.0000000000000006
 10
253.0921891636328
 20
210.2994964590306
 30
-0.0000000000000006
 10
253.1671170511638
 20
210.1426593009729
 30
-0.0000000000000006
 10
253.2077638650029
 20
210.0596815713938
 30
-0.0000000000000006
 10
253.2740272169755
 20
209.9283852908574
 30
-0.0000000000000006
 10
253.3084833164376
 20
209.8610272063797
 30
-0.0000000000000006
 10
253.3450362498929
 20
209.791080970079
 30
-0.0000000000000006
 10
253.3698842036321
 20
209.7438705002055
 30
-0.0000000000000006
 10
253.382563788629
 20
209.7199459257391
 30
-0.0000000000000006
 10
253.4468292908431
 20
209.5995418060677
 30
-0.0000000000000006
 10
253.5556082882792
 20
209.4011313362199
 30
-0.0000000000000006
 10
253.7370703434486
 20
209.0873861261065
 30
-0.0000000000000006
 10
253.8706231599252
 20
208.8678630501174
 30
-0.0000000000000006
 10
253.975697434935
 20
208.6993509376456
 30
-0.0000000000000005
 10
254.0115769810167
 20
208.6424798094075
 30
-0.0000000000000005
 10
254.0844989863549
 20
208.5282283438803
 30
-0.0000000000000005
 10
254.1215961807021
 20
208.4707588591598
 30
-0.0000000000000005
 10
254.1593272860511
 20
208.4129509009173
 30
-0.0000000000000005
  0
SPLINE
  5
101
330
1F
100
AcDbEntity
  8
1
  6
Continuous
 62
     1
370
    13
100
AcDbSpline
210
0.0
220
0.0
230
1.0
 70
     8
 71
     3
 72
    28
 73
    24
 74
     0
 42
0.000000001
 43
0.0000000001
 40
0.0
 40
0.0
 40
0.0
 40
0.0
 40
0.1249999999999997
 40
0.1249999999999997
 40
0.2499999999999994
 40
0.2499999999999994
 40
0.3749999999999991
 40
0.3749999999999991
 40
0.4062499999999991
 40
0.4062499999999991
 40
0.4374999999999991
 40
0.4374999999999991
 40
0.499999999999999
 40
0.499999999999999
 40
0.624999999999999
 40
0.624999999999999
 40
0.749999999999999
 40
0.749999999999999
 40
0.8124999999999991
 40
0.8124999999999991
 40
0.8749999999999994
 40
0.8749999999999994
 40
1.0
 40
1.0
 40
1.0
 40
1.0
 10
104.8479908719257
 20
70.01580689737132
 30
0.0000000000000007
 10
105.1924858242897
 20
70.3091042197744
 30
-0.0000000000000011
 10
105.5488302192067
 20
70.58245410212845
 30
0.0000000000000006
 10
106.283729579956
 20
71.0917644259576
 30
0.0000000000000006
 10
106.6622922908723
 20
71.32771182930058
 30
0.0000000000000006
 10
107.4409271894677
 20
71.76339742223753
 30
0.0000000000000005
 10
107.8410034976206
 20
71.96312867539496
 30
-0.0000000000000012
 10
108.3544738614638
 20
72.19027720293602
 30
0.0000000000000005
 10
108.4578379915338
 20
72.23457892898108
 30
0.0000000000000005
 10
108.6659095876126
 20
72.32092099932407
 30
0.0000000000000005
 10
108.7706675311123
 20
72.36298087731137
 30
0.0000000000000005
 10
109.0866426232789
 20
72.48563113158748
 30
-0.0000000000000013
 10
109.2984305941043
 20
72.56226133276367
 30
0.0000000000000005
 10
109.9370988375209
 20
72.77723586101247
 30
-0.0000000000000013
 10
110.3672792095187
 20
72.90068321436758
 30
0.0000000000000005
 10
111.2360000230871
 20
73.10983974371742
 30
-0.0000000000000013
 10
111.6745447287463
 20
73.19552967119715
 30
0.0000000000000005
 10
112.3383702607933
 20
73.29694172105383
 30
0.0000000000000005
 10
112.5606471662964
 20
73.32622383813434
 30
0.0000000000000004
 10
113.0071557567926
 20
73.37596400516834
 30
0.0000000000000004
 10
113.2314203279601
 20
73.39642305542831
 30
-0.0000000000000013
 10
113.9068575210538
 20
73.44495583758749
 30
0.0000000000000004
 10
114.3577642690062
 20
73.45991552013449
 30
-0.0000000000000013
 10
114.8092001468281
 20
73.45991552013449
 30
0.0000000000000004
  0
SPLINE
  5
102
330
1F
100
AcDbEntity
  8
1
  6
Continuous
 62
     1
370
    13
100
AcDbSpline
210
0.0
220
0.0
230
1.0
 70
     8
 71
     3
 72
    28
 73
    24
 74
     0
 42
0.000000001
 43
0.0000000001
 40
0.0
 40
0.0
 40
0.0
 40
0.0
 40
0.1249999999999997
 40
0.1249999999999997
 40
0.2499999999999994
 40
0.2499999999999994
 40
0.3749999999999991
 40
0.3749999999999991
 40
0.4062499999999991
 40
0.4062499999999991
 40
0.4374999999999991
 40
0.4374999999999991
 40
0.499999999999999
 40
0.499999999999999
 40
0.624999999999999
 40
0.624999999999999
 40
0.749999999999999
 40
0.749999999999999
 40
0.8124999999999991
 40
0.8124999999999991
 40
0.8749999999999994
 40
0.8749999999999994
 40
1.0
 40
1.0
 40
1.0
 40
1.0
 10
136.1265254206668
 20
33.27732875138362
 30
0.0000000000000011
 10
135.7820304683028
 20
32.98403142898054
 30
0.0000000000000011
 10
135.4256860733858
 20
32.7106815466265
 30
0.0000000000000012
 10
134.6907867126365
 20
32.20137122279733
 30
-0.0000000000000006
 10
134.3122240017202
 20
31.96542381945435
 30
0.0000000000000012
 10
133.5335891031248
 20
31.52973822651741
 30
0.0000000000000012
 10
133.1335127949718
 20
31.33000697335998
 30
0.0000000000000012
 10
132.6200424311287
 20
31.10285844581892
 30
0.0000000000000013
 10
132.5166783010587
 20
31.05855671977386
 30
0.0000000000000013
 10
132.3086067049799
 20
30.97221464943086
 30
0.0000000000000013
 10
132.2038487614802
 20
30.93015477144357
 30
0.0000000000000013
 10
131.8878736693136
 20
30.80750451716746
 30
0.0000000000000013
 10
131.6760856984882
 20
30.73087431599128
 30
0.0000000000000013
 10
131.0374174550715
 20
30.51589978774247
 30
0.0000000000000013
 10
130.6072370830738
 20
30.39245243438736
 30
0.0000000000000013
 10
129.7385162695053
 20
30.18329590503753
 30
0.0000000000000013
 10
129.2999715638462
 20
30.09760597755779
 30
0.0000000000000013
 10
128.6361460317991
 20
29.99619392770112
 30
0.0000000000000013
 10
128.4138691262961
 20
29.9669118106206
 30
0.0000000000000013
 10
127.9673605357999
 20
29.9171716435866
 30
0.0000000000000013
 10
127.7430959646324
 20
29.89671259332662
 30
0.0000000000000013
 10
127.0676587715387
 20
29.84817981116744
 30
0.0000000000000013
 10
126.6167520235863
 20
29.83322012862045
 30
0.0000000000000013
 10
126.1653161457644
 20
29.83322012862045
 30
0.0000000000000013
  0
SPLINE
  5
103
330
1F
100
AcDbEntity
  8
1
  6
Continuous
 62
     1
370
    13
100
AcDbSpline
210
0.0
220
0.0
230
1.0
 70
     8
 71
     3
 72
    28
 73
    24
 74
     0
 42
0.000000001
 43
0.0000000001
 40
0.0
 40
0.0
 40
0.0
 40
0.0
 40
0.1250000000000002
 40
0.1250000000000002
 40
0.2500000000000003
 40
0.2500000000000003
 40
0.3750000000000005
 40
0.3750000000000005
 40
0.4375000000000004
 40
0.4375000000000004
 40
0.5000000000000004
 40
0.5000000000000004
 40
0.6250000000000001
 40
0.6250000000000001
 40
0.7499999999999999
 40
0.7499999999999999
 40
0.8749999999999996
 40
0.8749999999999996
 40
0.9374999999999994
 40
0.9374999999999994
 40
0.9687499999999998
 40
0.9687499999999998
 40
1.0
 40
1.0
 40
1.0
 40
1.0
 10
114.8092001468281
 20
29.83322012862045
 30
0.0000000000000013
 10
114.3577280973715
 20
29.83322012862045
 30
-0.0000000000000004
 10
113.9085826193634
 20
29.84819703395235
 30
-0.0000000000000004
 10
113.0155628710518
 20
29.91208334164965
 30
0.0000000000000013
 10
112.5716798693248
 20
29.96093653697106
 30
0.0000000000000013
 10
111.6895523631545
 20
30.09493978842492
 30
0.0000000000000013
 10
111.2513031239749
 20
30.18005936550321
 30
0.0000000000000013
 10
110.5984113179186
 20
30.33659117801914
 30
0.0000000000000013
 10
110.3815278721558
 20
30.39357813932374
 30
0.0000000000000013
 10
109.9493047236725
 20
30.51748964343873
 30
0.0000000000000013
 10
109.7339223132473
 20
30.58442787923085
 30
0.0000000000000013
 10
109.0904347582976
 20
30.80061455972431
 30
0.0000000000000013
 10
108.6711979676371
 20
30.96311544901013
 30
0.0000000000000013
 10
107.8521518220921
 20
31.32471489237534
 30
0.0000000000000012
 10
107.4523390150673
 20
31.52380694326652
 30
0.0000000000000012
 10
106.6725020456454
 20
31.95926915993531
 30
0.0000000000000012
 10
106.292472796347
 20
32.1956297429398
 30
0.0000000000000012
 10
105.7379697503284
 20
32.57944663810754
 30
0.0000000000000012
 10
105.5557304432354
 20
32.71227417739216
 30
0.0000000000000012
 10
105.2864043566887
 20
32.91911266877318
 30
0.0000000000000011
 10
105.197429518662
 20
32.98922937453423
 30
0.0000000000000011
 10
105.0213592565867
 20
33.13161352784
 30
0.0000000000000011
 10
104.934222202255
 20
33.20391281852514
 30
0.0000000000000011
 10
104.8479908719257
 20
33.27732875138364
 30
0.0000000000000011
  0
SPLINE
  5
104
330
1F
100
AcDbEntity
  8
1
  6
Continuous
 62
     1
370
    13
100
AcDbSpline
210
0.0
220
0.0
230
1.0
 70
     8
 71
     3
 72
    28
 73
    24
 74
     0
 42
0.000000001
 43
0.0000000001
 40
0.0
 40
0.0
 40
0.0
 40
0.0
 40
0.1250000000000002
 40
0.1250000000000002
 40
0.2500000000000003
 40
0.2500000000000003
 40
0.3750000000000005
 40
0.3750000000000005
 40
0.4375000000000004
 40
0.4375000000000004
 40
0.5000000000000004
 40
0.5000000000000004
 40
0.6250000000000001
 40
0.6250000000000001
 40
0.7499999999999999
 40
0.7499999999999999
 40
0.8749999999999996
 40
0.8749999999999996
 40
0.9374999999999994
 40
0.9374999999999994
 40
0.9687499999999998
 40
0.9687499999999998
 40
1.0
 40
1.0
 40
1.0
 40
1.0
 10
126.1653161457644
 20
73.4599155201345
 30
0.0000000000000004
 10
126.616788195221
 20
73.4599155201345
 30
0.0000000000000004
 10
127.065933673229
 20
73.4449386148026
 30
0.0000000000000004
 10
127.9589534215406
 20
73.38105230710529
 30
-0.0000000000000013
 10
128.4028364232677
 20
73.33219911178388
 30
-0.0000000000000013
 10
129.284963929438
 20
73.19819586033002
 30
0.0000000000000005
 10
129.7232131686175
 20
73.11307628325173
 30
-0.0000000000000013
 10
130.3761049746739
 20
72.9565444707358
 30
0.0000000000000005
 10
130.5929884204366
 20
72.8995575094312
 30
-0.0000000000000013
 10
131.02521156892
 20
72.77564600531622
 30
0.0000000000000005
 10
131.2405939793452
 20
72.7087077695241
 30
0.0000000000000005
 10
131.8840815342949
 20
72.49252108903063
 30
0.0000000000000005
 10
132.3033183249554
 20
72.33002019974481
 30
0.0000000000000005
 10
133.1223644705004
 20
71.9684207563796
 30
0.0000000000000005
 10
133.5221772775251
 20
71.76932870548842
 30
0.0000000000000005
 10
134.3020142469471
 20
71.33386648881962
 30
-0.0000000000000012
 10
134.6820434962455
 20
71.09750590581514
 30
0.0000000000000006
 10
135.2365465422641
 20
70.7136890106474
 30
-0.0000000000000012
 10
135.4187858493571
 20
70.58086147136278
 30
0.0000000000000006
 10
135.6881119359038
 20
70.37402297998176
 30
0.0000000000000006
 10
135.7770867739304
 20
70.30390627422071
 30
0.0000000000000006
 10
135.9531570360058
 20
70.16152212091494
 30
-0.0000000000000011
 10
136.0402940903375
 20
70.0892228302298
 30
-0.0000000000000011
 10
136.1265254206668
 20
70.0158068973713
 30
0.0000000000000007
  0
SPLINE
  5
105
330
1F
100
AcDbEntity
  8
1
  6
Continuous
 62
     1
370
    13
100
AcDbSpline
210
0.0
220
0.0
230
1.0
 70
     8
 71
     3
 72
    26
 73
    22
 74
     0
 42
0.000000001
 43
0.0000000001
 40
0.0
 40
0.0
 40
0.0
 40
0.0
 40
0.1250000000000007
 40
0.1250000000000007
 40
0.1875000000000009
 40
0.1875000000000009
 40
0.2500000000000012
 40
0.2500000000000012
 40
0.3750000000000015
 40
0.3750000000000015
 40
0.5000000000000019
 40
0.5000000000000019
 40
0.5625000000000018
 40
0.5625000000000018
 40
0.6250000000000018
 40
0.6250000000000018
 40
0.7500000000000011
 40
0.7500000000000011
 40
0.8750000000000006
 40
0.8750000000000006
 40
1.0
 40
1.0
 40
1.0
 40
1.0
 10
126.1653161457644
 20
34.15698525324751
 30
0.0000000000000011
 10
126.4731429159995
 20
34.21920438145987
 30
0.0000000000000011
 10
126.7782582157427
 20
34.28787927597935
 30
0.0000000000000011
 10
127.2319602960308
 20
34.40182888857526
 30
0.0000000000000011
 10
127.3824984846206
 20
34.44162980055405
 30
0.0000000000000011
 10
127.6816023690483
 20
34.52489328134094
 30
0.000000000000001
 10
127.8302462752619
 20
34.56837501336901
 30
0.000000000000001
 10
128.2734331492934
 20
34.70461348068436
 30
0.000000000000001
 10
128.5652355256954
 20
34.80316474942042
 30
0.000000000000001
 10
129.1413074663228
 20
35.01696289795051
 30
0.000000000000001
 10
129.4255770984165
 20
35.13220626147202
 30
0.000000000000001
 10
129.8460616745648
 20
35.31852451779137
 30
0.000000000000001
 10
129.9852354727878
 20
35.38287316165962
 30
0.000000000000001
 10
130.2615484603858
 20
35.51622159035124
 30
0.000000000000001
 10
130.3987770496578
 20
35.58527416235093
 30
0.000000000000001
 10
130.80551615741
 20
35.79870016866904
 30
0.000000000000001
 10
131.0706357885168
 20
35.94958557868766
 30
0.000000000000001
 10
131.5883185008638
 20
36.26924896823613
 30
0.0000000000000009
 10
131.8408842536368
 20
36.43802236581774
 30
0.0000000000000009
 10
132.3327482109326
 20
36.79438086518789
 30
0.0000000000000009
 10
132.5720508645317
 20
36.98195947268024
 30
0.0000000000000009
 10
132.8041940307746
 20
37.17960233683828
 30
0.0000000000000009
  0
SPLINE
  5
106
330
1F
100
AcDbEntity
  8
1
  6
Continuous
 62
     1
370
    13
100
AcDbSpline
210
0.0
220
0.0
230
1.0
 70
     8
 71
     3
 72
    26
 73
    22
 74
     0
 42
0.000000001
 43
0.0000000001
 40
0.0
 40
0.0
 40
0.0
 40
0.0
 40
0.1249999999999995
 40
0.1249999999999995
 40
0.1874999999999993
 40
0.1874999999999993
 40
0.249999999999999
 40
0.249999999999999
 40
0.3749999999999989
 40
0.3749999999999989
 40
0.4999999999999988
 40
0.4999999999999988
 40
0.5624999999999988
 40
0.5624999999999988
 40
0.6249999999999987
 40
0.6249999999999987
 40
0.7499999999999991
 40
0.7499999999999991
 40
0.8749999999999994
 40
0.8749999999999994
 40
1.0
 40
1.0
 40
1.0
 40
1.0
 10
114.8092001468281
 20
69.13615039550743
 30
-0.0000000000000011
 10
114.501373376593
 20
69.07393126729507
 30
-0.0000000000000011
 10
114.1962580768498
 20
69.00525637277559
 30
-0.0000000000000011
 10
113.7425559965617
 20
68.89130676017967
 30
-0.0000000000000011
 10
113.5920178079719
 20
68.85150584820087
 30
-0.0000000000000011
 10
113.2929139235441
 20
68.76824236741399
 30
-0.000000000000001
 10
113.1442700173306
 20
68.72476063538593
 30
-0.000000000000001
 10
112.701083143299
 20
68.58852216807058
 30
-0.000000000000001
 10
112.409280766897
 20
68.48997089933452
 30
-0.000000000000001
 10
111.8332088262696
 20
68.27617275080443
 30
-0.000000000000001
 10
111.548939194176
 20
68.16092938728292
 30
-0.000000000000001
 10
111.1284546180277
 20
67.97461113096357
 30
-0.000000000000001
 10
110.9892808198047
 20
67.91026248709534
 30
-0.000000000000001
 10
110.7129678322067
 20
67.7769140584037
 30
-0.000000000000001
 10
110.5757392429347
 20
67.707861486404
 30
-0.000000000000001
 10
110.1690001351825
 20
67.49443548008591
 30
-0.000000000000001
 10
109.9038805040757
 20
67.34355007006728
 30
-0.000000000000001
 10
109.3861977917287
 20
67.02388668051883
 30
-0.0000000000000009
 10
109.1336320389557
 20
66.85511328293721
 30
-0.0000000000000009
 10
108.6417680816599
 20
66.49875478356705
 30
-0.0000000000000009
 10
108.4024654280608
 20
66.31117617607471
 30
-0.0000000000000009
 10
108.1703222618179
 20
66.11353331191667
 30
-0.0000000000000009
  0
SPLINE
  5
107
330
1F
100
AcDbEntity
  8
1
  6
Continuous
 62
     1
370
    13
100
AcDbSpline
210
0.0
220
0.0
230
1.0
 70
     8
 71
     3
 72
    29
 73
    25
 74
     0
 42
0.000000001
 43
0.0000000001
 40
0.0
 40
0.0
 40
0.0
 40
0.0
 40
0.0312500000000003
 40
0.0312500000000003
 40
0.0625000000000007
 40
0.0625000000000007
 40
0.1250000000000012
 40
0.1250000000000012
 40
0.2500000000000023
 40
0.2500000000000023
 40
0.3750000000000034
 40
0.3750000000000034
 40
0.4375000000000037
 40
0.4687500000000036
 40
0.4687500000000036
 40
0.5000000000000033
 40
0.5000000000000033
 40
0.6250000000000028
 40
0.6250000000000028
 40
0.750000000000002
 40
0.750000000000002
 40
0.875000000000001
 40
0.875000000000001
 40
1.0
 40
1.0
 40
1.0
 40
1.0
 10
132.8041940307746
 20
66.11353331191667
 30
-0.0000000000000009
 10
132.7461165359043
 20
66.16297953346637
 30
-0.0000000000000009
 10
132.6875355650408
 20
66.21184076252689
 30
-0.0000000000000009
 10
132.5693825445124
 20
66.30840897925404
 30
-0.0000000000000009
 10
132.5097872841512
 20
66.35613401005351
 30
-0.0000000000000009
 10
132.3297213471781
 20
66.4974543297364
 30
-0.0000000000000009
 10
132.2080156006508
 20
66.5891646882231
 30
-0.0000000000000009
 10
131.8381043126975
 20
66.85704562157748
 30
-0.0000000000000009
 10
131.5851132792343
 20
67.02597600838278
 30
-0.0000000000000009
 10
131.0671357879077
 20
67.34559970806464
 30
-0.000000000000001
 10
130.8021465275078
 20
67.49628803006277
 30
-0.000000000000001
 10
130.3960578398963
 20
67.70924542093724
 30
-0.000000000000001
 10
130.1908598452125
 20
67.81245296296674
 30
-0.000000000000001
 10
129.9824861117119
 20
67.91085262384081
 30
-0.000000000000001
 10
129.8428694950917
 20
67.97539435603355
 30
-0.000000000000001
 10
129.772761168083
 20
68.00711231358173
 30
-0.000000000000001
 10
129.4212529555672
 20
68.16275690052817
 30
-0.000000000000001
 10
129.1364651157117
 20
68.27808150207767
 30
-0.000000000000001
 10
128.5600973931411
 20
68.49176426491297
 30
-0.000000000000001
 10
128.2685173836986
 20
68.59011872025225
 30
-0.000000000000001
 10
127.6787936546249
 20
68.77123146018772
 30
-0.000000000000001
 10
127.380650918567
 20
68.8539878321102
 30
-0.0000000000000011
 10
126.7778780407989
 20
69.00532624467867
 30
-0.0000000000000011
 10
126.4732503271272
 20
69.07390955694571
 30
-0.0000000000000011
 10
126.1653161457644
 20
69.13615039550744
 30
-0.0000000000000011
  0
SPLINE
  5
108
330
1F
100
AcDbEntity
  8
1
  6
Continuous
 62
     1
370
    18
100
AcDbSpline
210
0.0
220
0.0
230
1.0
 70
     8
 71
     3
 72
     8
 73
     4
 74
     0
 42
0.000000001
 43
0.0000000001
 40
0.0
 40
0.0
 40
0.0
 40
0.0
 40
1.0
 40
1.0
 40
1.0
 40
1.0
 10
136.4476982044492
 20
41.33810742094409
 30
0.0000000000000006
 10
136.4341320689736
 20
41.31710322546752
 30
0.0000000000000006
 10
136.42063261482
 20
41.29629326349446
 30
0.0000000000000006
 10
136.4072019350101
 20
41.27567636008233
 30
0.0000000000000006
  0
SPLINE
  5
109
330
1F
100
AcDbEntity
  8
1
  6
Continuous
 62
     1
370
    18
100
AcDbSpline
210
0.0
220
0.0
230
1.0
 70
     8
 71
     3
 72
     8
 73
     4
 74
     0
 42
0.000000001
 43
0.0000000001
 40
0.0
 40
0.0
 40
0.0
 40
0.0
 40
1.0
 40
1.0
 40
1.0
 40
1.0
 10
104.5505821168799
 20
41.30140677519965
 30
0.0000000000000006
 10
104.5313910070462
 20
41.33097059722329
 30
0.0000000000000006
 10
104.51208192931
 20
41.36089592222056
 30
0.0000000000000006
 10
104.492661581904
 20
41.39118409532248
 30
0.0000000000000006
  0
SPLINE
  5
10A
330
1F
100
AcDbEntity
  8
1
  6
Continuous
 62
     1
370
    18
100
AcDbSpline
210
0.0
220
0.0
230
1.0
 70
     8
 71
     3
 72
     8
 73
     4
 74
     0
 42
0.000000001
 43
0.0000000001
 40
0.0
 40
0.0
 40
0.0
 40
0.0
 40
1.0
 40
1.0
 40
1.0
 40
1.0
 10
136.4072019350101
 20
62.01745928867262
 30
-0.0000000000000006
 10
136.4321115239905
 20
61.97922156747649
 30
-0.0000000000000006
 10
136.4572252128217
 20
61.94036990587036
 30
-0.0000000000000006
 10
136.4825282188938
 20
61.90090134666482
 30
-0.0000000000000006
  0
SPLINE
  5
10B
330
1F
100
AcDbEntity
  8
1
  6
Continuous
 62
     1
370
    18
100
AcDbSpline
210
0.0
220
0.0
230
1.0
 70
     8
 71
     3
 72
     8
 73
     4
 74
     0
 42
0.000000001
 43
0.0000000001
 40
0.0
 40
0.0
 40
0.0
 40
0.0
 40
1.0
 40
1.0
 40
1.0
 40
1.0
 10
104.5053870149159
 20
61.92177091460448
 30
-0.0000000000000006
 10
104.5205341647671
 20
61.94533046060728
 30
-0.0000000000000006
 10
104.5356001564268
 20
61.96864922801942
 30
-0.0000000000000006
 10
104.5505821168799
 20
61.9917288735553
 30
-0.0000000000000006
  0
SPLINE
  5
10C
330
1F
100
AcDbEntity
  8
1
  6
Continuous
 62
     1
370
    13
100
AcDbSpline
210
0.0
220
0.0
230
1.0
 70
     8
 71
     3
 72
    29
 73
    25
 74
     0
 42
0.000000001
 43
0.0000000001
 40
0.0
 40
0.0
 40
0.0
 40
0.0
 40
0.0312500000000003
 40
0.0312500000000003
 40
0.0625000000000007
 40
0.0625000000000007
 40
0.1250000000000012
 40
0.1250000000000012
 40
0.2500000000000023
 40
0.2500000000000023
 40
0.3750000000000034
 40
0.3750000000000034
 40
0.4375000000000037
 40
0.4687500000000036
 40
0.4687500000000036
 40
0.5000000000000033
 40
0.5000000000000033
 40
0.6250000000000028
 40
0.6250000000000028
 40
0.750000000000002
 40
0.750000000000002
 40
0.875000000000001
 40
0.875000000000001
 40
1.0
 40
1.0
 40
1.0
 40
1.0
 10
108.1703222618179
 20
37.17960233683828
 30
0.0000000000000009
 10
108.2283997566882
 20
37.13015611528857
 30
0.0000000000000009
 10
108.2869807275517
 20
37.08129488622805
 30
0.0000000000000009
 10
108.4051337480801
 20
36.9847266695009
 30
0.0000000000000009
 10
108.4647290084413
 20
36.93700163870144
 30
0.0000000000000009
 10
108.6447949454144
 20
36.79568131901856
 30
0.0000000000000009
 10
108.7665006919417
 20
36.70397096053185
 30
0.0000000000000009
 10
109.136411979895
 20
36.43609002717746
 30
0.0000000000000009
 10
109.3894030133582
 20
36.26715964037216
 30
0.0000000000000009
 10
109.9073805046848
 20
35.9475359406903
 30
0.000000000000001
 10
110.1723697650847
 20
35.79684761869217
 30
0.000000000000001
 10
110.5784584526961
 20
35.5838902278177
 30
0.000000000000001
 10
110.7836564473799
 20
35.4806826857882
 30
0.000000000000001
 10
110.9920301808806
 20
35.38228302491413
 30
0.000000000000001
 10
111.1316467975008
 20
35.31774129272139
 30
0.000000000000001
 10
111.2017551245095
 20
35.2860233351732
 30
0.000000000000001
 10
111.5532633370253
 20
35.13037874822677
 30
0.000000000000001
 10
111.8380511768808
 20
35.01505414667728
 30
0.000000000000001
 10
112.4144188994514
 20
34.80137138384197
 30
0.000000000000001
 10
112.7059989088939
 20
34.70301692850269
 30
0.000000000000001
 10
113.2957226379676
 20
34.52190418856722
 30
0.000000000000001
 10
113.5938653740255
 20
34.43914781664473
 30
0.0000000000000011
 10
114.1966382517936
 20
34.28780940407627
 30
0.0000000000000011
 10
114.5012659654653
 20
34.21922609180923
 30
0.0000000000000011
 10
114.8092001468281
 20
34.1569852532475
 30
0.0000000000000011
  0
SPLINE
  5
10D
330
1F
100
AcDbEntity
  8
1
  6
Continuous
 62
     1
370
    13
100
AcDbSpline
210
0.0
220
0.0
230
1.0
 70
     8
 71
     3
 72
    48
 73
    44
 74
     0
 42
0.000000001
 43
0.0000000001
 40
0.0
 40
0.0
 40
0.0
 40
0.0
 40
0.1250000000000015
 40
0.1250000000000015
 40
0.2500000000000031
 40
0.2500000000000031
 40
0.2812500000000044
 40
0.2812500000000044
 40
0.3125000000000058
 40
0.3125000000000058
 40
0.3750000000000068
 40
0.3750000000000068
 40
0.4375000000000077
 40
0.4375000000000077
 40
0.5000000000000085
 40
0.5000000000000085
 40
0.5312500000000074
 40
0.5312500000000074
 40
0.5625000000000064
 40
0.5625000000000064
 40
0.6250000000000044
 40
0.6250000000000044
 40
0.6562500000000034
 40
0.6562500000000034
 40
0.6718750000000036
 40
0.6718750000000036
 40
0.6875000000000037
 40
0.6875000000000037
 40
0.7500000000000033
 40
0.7500000000000033
 40
0.7656250000000032
 40
0.7656250000000032
 40
0.7812500000000031
 40
0.8125000000000016
 40
0.8125000000000016
 40
0.875
 40
0.875
 40
0.8906249999999997
 40
0.8906249999999997
 40
0.9062499999999993
 40
0.9374999999999999
 40
0.9374999999999999
 40
1.0
 40
1.0
 40
1.0
 40
1.0
 10
136.4072019350101
 20
41.27567636008232
 30
0.0000000000000006
 10
136.378863591774
 20
41.232175294341
 30
0.0000000000000006
 10
136.3427714526558
 20
41.19208598645334
 30
0.0000000000000006
 10
136.2547923235373
 20
41.11876857436675
 30
0.0000000000000006
 10
136.2029336565257
 20
41.08554586293202
 30
0.0000000000000006
 10
136.1270677509827
 20
41.04809308349677
 30
0.0000000000000006
 10
136.1113370057307
 20
41.04080507212434
 30
0.0000000000000006
 10
136.0787047149281
 20
41.02662287141689
 30
0.0000000000000007
 10
136.0617817168574
 20
41.01972055727013
 30
0.0000000000000007
 10
136.0092991587211
 20
40.99963848787721
 30
0.0000000000000007
 10
135.9722135189062
 20
40.98715035221838
 30
0.0000000000000007
 10
135.8934799963764
 20
40.96373504293329
 30
0.0000000000000007
 10
135.8518351329935
 20
40.95280903903363
 30
0.0000000000000007
 10
135.7633814072104
 20
40.93220954276745
 30
0.0000000000000007
 10
135.7165782521013
 20
40.92253818982078
 30
0.0000000000000007
 10
135.6417777754299
 20
40.90865051374116
 30
0.0000000000000007
 10
135.616075010165
 20
40.90412340690802
 30
0.0000000000000007
 10
135.5629564610087
 20
40.89520152837418
 30
0.0000000000000007
 10
135.5354635819605
 20
40.89079570512776
 30
0.0000000000000007
 10
135.4510832151168
 20
40.87779313217133
 30
0.0000000000000007
 10
135.3921138031713
 20
40.8693821624385
 30
0.0000000000000007
 10
135.2988489698195
 20
40.8565059661375
 30
0.0000000000000007
 10
135.2669559089376
 20
40.85216890366772
 30
0.0000000000000007
 10
135.2177839280674
 20
40.84549551028908
 30
0.0000000000000007
 10
135.2011709395625
 20
40.8432429203073
 30
0.0000000000000007
 10
135.1674759211561
 20
40.83866262621615
 30
0.0000000000000007
 10
135.1503876336405
 20
40.83633400165629
 30
0.0000000000000007
 10
135.0644116398521
 20
40.82454919080137
 30
0.0000000000000007
 10
134.9934000163106
 20
40.81459890968404
 30
0.0000000000000007
 10
134.9016320489124
 20
40.80082007914366
 30
0.0000000000000007
 10
134.8830840648103
 20
40.79799015742168
 30
0.0000000000000007
 10
134.8460166336601
 20
40.79223105406432
 30
0.0000000000000007
 10
134.790389448846
 20
40.78343413711335
 30
0.0000000000000007
 10
134.7346963150743
 20
40.77411276269018
 30
0.0000000000000007
 10
134.6232500475761
 20
40.75466394980552
 30
0.0000000000000007
 10
134.5488738315912
 20
40.74061577954508
 30
0.0000000000000007
 10
134.4558766903092
 20
40.72147136865755
 30
0.0000000000000007
 10
134.4372853834193
 20
40.71756540118744
 30
0.0000000000000007
 10
134.4004265428209
 20
40.70966452699259
 30
0.0000000000000007
 10
134.3454977825045
 20
40.69765420523317
 30
0.0000000000000007
 10
134.2915861800829
 20
40.68516721627835
 30
0.0000000000000007
 10
134.1849757729559
 20
40.65957021180138
 30
0.0000000000000007
 10
134.1155143347059
 20
40.64167325095189
 30
0.0000000000000007
 10
134.0473534829919
 20
40.62300928380485
 30
0.0000000000000007
  0
SPLINE
  5
10E
330
1F
100
AcDbEntity
  8
1
  6
Continuous
 62
     1
370
    13
100
AcDbSpline
210
0.0
220
0.0
230
1.0
 70
     8
 71
     3
 72
    48
 73
    44
 74
     0
 42
0.000000001
 43
0.0000000001
 40
0.0
 40
0.0
 40
0.0
 40
0.0
 40
0.1249999999999946
 40
0.1249999999999946
 40
0.2499999999999892
 40
0.2499999999999892
 40
0.2812499999999879
 40
0.2812499999999879
 40
0.3124999999999872
 40
0.3124999999999872
 40
0.3749999999999862
 40
0.3749999999999862
 40
0.4374999999999852
 40
0.4374999999999852
 40
0.4999999999999841
 40
0.4999999999999841
 40
0.5312499999999841
 40
0.5312499999999841
 40
0.5624999999999841
 40
0.5624999999999841
 40
0.624999999999986
 40
0.624999999999986
 40
0.6562499999999862
 40
0.6562499999999862
 40
0.6718749999999877
 40
0.6718749999999877
 40
0.6874999999999891
 40
0.6874999999999891
 40
0.749999999999991
 40
0.749999999999991
 40
0.7656249999999913
 40
0.7656249999999913
 40
0.7812499999999917
 40
0.812499999999992
 40
0.812499999999992
 40
0.8749999999999913
 40
0.8749999999999913
 40
0.8906249999999923
 40
0.8906249999999923
 40
0.9062499999999933
 40
0.9374999999999963
 40
0.9374999999999963
 40
1.0
 40
1.0
 40
1.0
 40
1.0
 10
104.5505821168799
 20
61.99172887355529
 30
-0.0000000000000006
 10
104.5794322504485
 20
62.03617238003176
 30
-0.0000000000000006
 10
104.6161186723655
 20
62.0772265272742
 30
-0.0000000000000006
 10
104.7054699872284
 20
62.15251496946424
 30
-0.0000000000000006
 10
104.7581058674027
 20
62.18674362164349
 30
-0.0000000000000006
 10
104.8350885702882
 20
62.22548478035903
 30
-0.0000000000000006
 10
104.8510500515651
 20
62.23303205781835
 30
-0.0000000000000006
 10
104.8841599025732
 20
62.2477363141441
 30
-0.0000000000000006
 10
104.9013373824947
 20
62.25490447305755
 30
-0.0000000000000006
 10
104.9545365472565
 20
62.27576076769095
 30
-0.0000000000000007
 10
104.9921191615975
 20
62.28876632393967
 30
-0.0000000000000007
 10
105.0718880929404
 20
62.31322307198201
 30
-0.0000000000000007
 10
105.1140713795739
 20
62.32467307038765
 30
-0.0000000000000007
 10
105.2036480897174
 20
62.34633276905348
 30
-0.0000000000000007
 10
105.2510357907502
 20
62.3565402904928
 30
-0.0000000000000007
 10
105.3267527769156
 20
62.37124746793734
 30
-0.0000000000000007
 10
105.3527676785473
 20
62.37605030639936
 30
-0.0000000000000007
 10
105.4065248517009
 20
62.38553015743086
 30
-0.0000000000000007
 10
105.4343237709934
 20
62.39021522487332
 30
-0.0000000000000007
 10
105.5195470112678
 20
62.4040454914356
 30
-0.0000000000000007
 10
105.5790642558817
 20
62.4130106902052
 30
-0.0000000000000007
 10
105.6731048390198
 20
62.42672287647328
 30
-0.0000000000000007
 10
105.7052486847244
 20
62.43133933639638
 30
-0.0000000000000007
 10
105.7547803140571
 20
62.43843245562626
 30
-0.0000000000000007
 10
105.7715104157141
 20
62.44082505375599
 30
-0.0000000000000007
 10
105.8054331026949
 20
62.44568540337848
 30
-0.0000000000000007
 10
105.8226159506572
 20
62.44815182189043
 30
-0.0000000000000007
 10
105.9090429230499
 20
62.46061961298255
 30
-0.0000000000000007
 10
105.9803409748868
 20
62.47110095260642
 30
-0.0000000000000007
 10
106.0723420289252
 20
62.48550744224033
 30
-0.0000000000000007
 10
106.0909155649259
 20
62.48845900333853
 30
-0.0000000000000007
 10
106.127991180696
 20
62.49444995440668
 30
-0.0000000000000007
 10
106.1836165190082
 20
62.50358607504475
 30
-0.0000000000000007
 10
106.2392661947746
 20
62.5132196047529
 30
-0.0000000000000007
 10
106.3505722215203
 20
62.53325342717414
 30
-0.0000000000000007
 10
106.4247838128186
 20
62.54763899209017
 30
-0.0000000000000007
 10
106.5174940419244
 20
62.56713121338093
 30
-0.0000000000000007
 10
106.5360387077819
 20
62.57110614090094
 30
-0.0000000000000007
 10
106.5728078896675
 20
62.57913907632365
 30
-0.0000000000000007
 10
106.6276034100148
 20
62.59133827686296
 30
-0.0000000000000007
 10
106.6813848553366
 20
62.60398779001063
 30
-0.0000000000000007
 10
106.7877376337549
 20
62.6298780039199
 30
-0.0000000000000007
 10
106.8570308293241
 20
62.64792806181914
 30
-0.0000000000000007
 10
106.9250242547842
 20
62.6667107777848
 30
-0.0000000000000007
  0
SPLINE
  5
10F
330
1F
100
AcDbEntity
  8
1
  6
Continuous
 62
     1
370
    13
100
AcDbSpline
210
0.0
220
0.0
230
1.0
 70
     8
 71
     3
 72
    45
 73
    41
 74
     0
 42
0.000000001
 43
0.0000000001
 40
0.0
 40
0.0
 40
0.0
 40
0.0
 40
0.0624999999999942
 40
0.0624999999999942
 40
0.1249999999999883
 40
0.1249999999999883
 40
0.1562499999999847
 40
0.1562499999999847
 40
0.187499999999981
 40
0.187499999999981
 40
0.2499999999999725
 40
0.2499999999999725
 40
0.2812499999999694
 40
0.2812499999999694
 40
0.2968749999999677
 40
0.2968749999999677
 40
0.3124999999999661
 40
0.3124999999999661
 40
0.3749999999999619
 40
0.3749999999999619
 40
0.390624999999963
 40
0.390624999999963
 40
0.4062499999999641
 40
0.4374999999999664
 40
0.4374999999999664
 40
0.4999999999999702
 40
0.4999999999999702
 40
0.562499999999974
 40
0.562499999999974
 40
0.6249999999999779
 40
0.6249999999999779
 40
0.6562499999999798
 40
0.6562499999999798
 40
0.6874999999999818
 40
0.6874999999999818
 40
0.7499999999999865
 40
0.7499999999999865
 40
0.8749999999999932
 40
0.8749999999999932
 40
1.0
 40
1.0
 40
1.0
 40
1.0
 10
134.0473534829919
 20
62.67012636495009
 30
-0.0000000000000007
 10
134.1153431988902
 20
62.6515092586207
 30
-0.0000000000000007
 10
134.1845449386205
 20
62.63367820262574
 30
-0.0000000000000007
 10
134.3259227980555
 20
62.59971504415425
 30
-0.0000000000000007
 10
134.3980971005039
 20
62.58358563796697
 30
-0.0000000000000007
 10
134.50911871773
 20
62.56069107837182
 30
-0.0000000000000007
 10
134.5466727452466
 20
62.55326071485
 30
-0.0000000000000007
 10
134.6218149004651
 20
62.53899920769688
 30
-0.0000000000000007
 10
134.6596321575154
 20
62.53212473200677
 30
-0.0000000000000007
 10
134.772019654469
 20
62.51250515850728
 30
-0.0000000000000007
 10
134.8457490997823
 20
62.50071770498431
 30
-0.0000000000000007
 10
134.9544708969417
 20
62.48437640075796
 30
-0.0000000000000007
 10
134.9903994846976
 20
62.4791512320955
 30
-0.0000000000000007
 10
135.0438143710127
 20
62.4715600573704
 30
-0.0000000000000007
 10
135.0615567757781
 20
62.46906841247005
 30
-0.0000000000000007
 10
135.0965551297611
 20
62.46419677246946
 30
-0.0000000000000007
 10
135.1138519069007
 20
62.46181090286177
 30
-0.0000000000000007
 10
135.1993636912657
 20
62.45008376436601
 30
-0.0000000000000007
 10
135.2646736222183
 20
62.44134043768881
 30
-0.0000000000000007
 10
135.342956776519
 20
62.43054181731394
 30
-0.0000000000000007
 10
135.3584688575644
 20
62.42838576226916
 30
-0.0000000000000007
 10
135.3890179068543
 20
62.4240939923255
 30
-0.0000000000000007
 10
135.4341395216
 20
62.41768578703626
 30
-0.0000000000000007
 10
135.4772783653019
 20
62.41129746571991
 30
-0.0000000000000007
 10
135.5611779975859
 20
62.39839359498097
 30
-0.0000000000000007
 10
135.613953602557
 20
62.38961562826613
 30
-0.0000000000000007
 10
135.714195394771
 20
62.37107347303544
 30
-0.0000000000000007
 10
135.7617568409991
 20
62.36128245323607
 30
-0.0000000000000007
 10
135.8511314274449
 20
62.34051191492382
 30
-0.0000000000000007
 10
135.893091860832
 20
62.32951181671872
 30
-0.0000000000000007
 10
135.9524698733024
 20
62.31185914330683
 30
-0.0000000000000007
 10
135.9716660787023
 20
62.30578364879995
 30
-0.0000000000000007
 10
136.0089264348256
 20
62.29321972368735
 30
-0.0000000000000007
 10
136.0270098828039
 20
62.28672379307101
 30
-0.0000000000000007
 10
136.0794958777063
 20
62.26662980658522
 30
-0.0000000000000007
 10
136.1120249327363
 20
62.25247290860835
 30
-0.0000000000000006
 10
136.2029696502077
 20
62.20756370889005
 30
-0.0000000000000006
 10
136.2548005679672
 20
62.17435973180622
 30
-0.0000000000000006
 10
136.342757004236
 20
62.1010621749456
 30
-0.0000000000000006
 10
136.3788547508096
 20
62.06097392582739
 30
-0.0000000000000006
 10
136.4072019350101
 20
62.01745928867262
 30
-0.0000000000000006
  0
SPLINE
  5
110
330
1F
100
AcDbEntity
  8
1
  6
Continuous
 62
     1
370
    13
100
AcDbSpline
210
0.0
220
0.0
230
1.0
 70
     8
 71
     3
 72
    48
 73
    44
 74
     0
 42
0.000000001
 43
0.0000000001
 40
0.0
 40
0.0
 40
0.0
 40
0.0
 40
0.0624999999999996
 40
0.0624999999999996
 40
0.1249999999999993
 40
0.1249999999999993
 40
0.1562499999999982
 40
0.1562499999999982
 40
0.1718749999999975
 40
0.1718749999999975
 40
0.1874999999999969
 40
0.1874999999999969
 40
0.2499999999999962
 40
0.2499999999999962
 40
0.2812499999999961
 40
0.2812499999999961
 40
0.2968749999999957
 40
0.2968749999999957
 40
0.3124999999999953
 40
0.3124999999999953
 40
0.3749999999999932
 40
0.3749999999999932
 40
0.4062499999999921
 40
0.4062499999999921
 40
0.4374999999999909
 40
0.4374999999999909
 40
0.4999999999999902
 40
0.4999999999999902
 40
0.5312499999999897
 40
0.5312499999999897
 40
0.5624999999999893
 40
0.5624999999999893
 40
0.6249999999999882
 40
0.6249999999999882
 40
0.6562499999999887
 40
0.6562499999999887
 40
0.6874999999999891
 40
0.6874999999999891
 40
0.7499999999999909
 40
0.7499999999999909
 40
0.8749999999999954
 40
0.8749999999999954
 40
1.0
 40
1.0
 40
1.0
 40
1.0
 10
106.9250242547842
 20
40.62642487097014
 30
0.0000000000000007
 10
106.8572021933133
 20
40.64516024881281
 30
0.0000000000000007
 10
106.7881725921862
 20
40.66314256165499
 30
0.0000000000000007
 10
106.647155908815
 20
40.69748954555909
 30
0.0000000000000007
 10
106.5751705736503
 20
40.7138515707688
 30
0.0000000000000007
 10
106.4644541548073
 20
40.73716859499986
 30
0.0000000000000007
 10
106.4269986968923
 20
40.74475405193779
 30
0.0000000000000007
 10
106.370760312751
 20
40.75570540094285
 30
0.0000000000000007
 10
106.3519829926215
 20
40.75928980339193
 30
0.0000000000000007
 10
106.3143657162518
 20
40.76633174936396
 30
0.0000000000000007
 10
106.2955391435692
 20
40.76978650751429
 30
0.0000000000000007
 10
106.2019194899094
 20
40.78664214146782
 30
0.0000000000000007
 10
106.1281473640113
 20
40.79887961684115
 30
0.0000000000000007
 10
106.019262698233
 20
40.81594476215607
 30
0.0000000000000007
 10
105.9832633659238
 20
40.82141935675528
 30
0.0000000000000007
 10
105.9297189368002
 20
40.8293947032363
 30
0.0000000000000007
 10
105.911907641187
 20
40.83201944644451
 30
0.0000000000000007
 10
105.8767188854865
 20
40.83716435772847
 30
0.0000000000000007
 10
105.8593233408676
 20
40.83968735837367
 30
0.0000000000000007
 10
105.7733019977911
 20
40.85210194344209
 30
0.0000000000000007
 10
105.7075348866136
 20
40.86140051393467
 30
0.0000000000000007
 10
105.6128651692124
 20
40.87519263412538
 30
0.0000000000000007
 10
105.5819406383289
 20
40.87976828393001
 30
0.0000000000000007
 10
105.5220612765365
 20
40.88886766554541
 30
0.0000000000000007
 10
105.4930056866382
 20
40.89340568548982
 30
0.0000000000000007
 10
105.4082268838679
 20
40.90713970593552
 30
0.0000000000000007
 10
105.3548784546434
 20
40.9164614624432
 30
0.0000000000000007
 10
105.2788590303207
 20
40.93117422569241
 30
0.0000000000000007
 10
105.2541900772856
 20
40.93619853671458
 30
0.0000000000000007
 10
105.2061050003312
 20
40.94655171273263
 30
0.0000000000000007
 10
105.1827362945821
 20
40.95187126000631
 30
0.0000000000000007
 10
105.1148102372666
 20
40.96826107684986
 30
0.0000000000000007
 10
105.0722856098439
 20
40.97979468832047
 30
0.0000000000000007
 10
105.0121021160772
 20
40.99824067053304
 30
0.0000000000000007
 10
104.9926442574288
 20
41.00457941771099
 30
0.0000000000000007
 10
104.9548733255297
 20
41.0176680323053
 30
0.0000000000000007
 10
104.9365449149084
 20
41.02442397489305
 30
0.0000000000000007
 10
104.883308234614
 20
41.04530821084669
 30
0.0000000000000006
 10
104.8503118970656
 20
41.05998416858661
 30
0.0000000000000006
 10
104.7580487261708
 20
41.1064320942948
 30
0.0000000000000006
 10
104.7054489847388
 20
41.14063769827345
 30
0.0000000000000006
 10
104.6161307412487
 20
41.21589963012485
 30
0.0000000000000006
 10
104.5794406097257
 20
41.25695039129278
 30
0.0000000000000006
 10
104.5505821168799
 20
41.30140677519965
 30
0.0000000000000006
  0
SPLINE
  5
111
330
1F
100
AcDbEntity
  8
1
  6
Continuous
 62
     1
370
    13
100
AcDbSpline
210
0.0
220
0.0
230
1.0
 70
     8
 71
     3
 72
    35
 73
    31
 74
     0
 42
0.000000001
 43
0.0000000001
 40
0.0
 40
0.0
 40
0.0
 40
0.0
 40
0.0625
 40
0.125
 40
0.125
 40
0.1875
 40
0.1875
 40
0.25
 40
0.25
 40
0.3125
 40
0.3125
 40
0.375
 40
0.375
 40
0.4375000000000001
 40
0.4375000000000001
 40
0.5000000000000001
 40
0.5625000000000001
 40
0.5625000000000001
 40
0.6250000000000001
 40
0.6250000000000001
 40
0.6875000000000001
 40
0.6875000000000001
 40
0.7500000000000001
 40
0.7500000000000001
 40
0.8125000000000001
 40
0.8125000000000001
 40
0.8750000000000001
 40
0.8750000000000001
 40
0.9375000000000001
 40
1.0
 40
1.0
 40
1.0
 40
1.0
 10
106.9250242547842
 20
62.6667107777848
 30
-0.0000000000000007
 10
107.4900676783852
 20
62.67845938766001
 30
-0.0000000000000007
 10
108.6201577709596
 20
62.69452858354035
 30
-0.0000000000000007
 10
109.750253264267
 20
62.69823655544621
 30
-0.0000000000000007
 10
110.8803508302667
 20
62.6972005388827
 30
-0.0000000000000007
 10
111.4454006492454
 20
62.69431137733157
 30
-0.0000000000000007
 10
112.5755016511586
 20
62.6854112253999
 30
-0.0000000000000007
 10
113.1405528328191
 20
62.67940315102314
 30
-0.0000000000000007
 10
114.2706557932552
 20
62.6660203223425
 30
-0.0000000000000007
 10
114.8357075695876
 20
62.65865115987464
 30
-0.0000000000000007
 10
115.9658109494016
 20
62.64430845698196
 30
-0.0000000000000007
 10
116.5308625494073
 20
62.63734287219135
 30
-0.0000000000000007
 10
117.6609648933995
 20
62.6253709631023
 30
-0.0000000000000007
 10
118.2260156337061
 20
62.62037306173765
 30
-0.0000000000000007
 10
119.356115773237
 20
62.61344673459474
 30
-0.0000000000000007
 10
120.4862145667015
 20
62.60960129075657
 30
-0.0000000000000007
 10
121.6163103003855
 20
62.61275908741398
 30
-0.0000000000000007
 10
122.7464046548024
 20
62.61907375743666
 30
-0.0000000000000007
 10
123.3114511447391
 20
62.62380412330477
 30
-0.0000000000000007
 10
124.4415432020592
 20
62.63537639960141
 30
-0.0000000000000007
 10
125.0065887730706
 20
62.64221000611776
 30
-0.0000000000000007
 10
126.1366796611579
 20
62.65645842819467
 30
-0.0000000000000007
 10
126.7017249817791
 20
62.66386512923187
 30
-0.0000000000000007
 10
127.8318161368796
 20
62.67750240997396
 30
-0.0000000000000007
 10
128.3968619739206
 20
62.68372712693564
 30
-0.0000000000000007
 10
129.526954934418
 20
62.69323220639411
 30
-0.0000000000000007
 10
130.092002059257
 20
62.69650940498186
 30
-0.0000000000000007
 10
131.222098313297
 20
62.69847620828706
 30
-0.0000000000000007
 10
132.3521965725826
 20
62.69585339562888
 30
-0.0000000000000007
 10
133.4823001146748
 20
62.68113926957425
 30
-0.0000000000000007
 10
134.0473534829919
 20
62.67012636495009
 30
-0.0000000000000007
  0
SPLINE
  5
112
330
1F
100
AcDbEntity
  8
1
  6
Continuous
 62
     1
370
    13
100
AcDbSpline
210
0.0
220
0.0
230
1.0
 70
     8
 71
     3
 72
    35
 73
    31
 74
     0
 42
0.000000001
 43
0.0000000001
 40
0.0
 40
0.0
 40
0.0
 40
0.0
 40
0.0625000000000001
 40
0.1250000000000001
 40
0.1250000000000001
 40
0.1875000000000002
 40
0.1875000000000002
 40
0.2500000000000002
 40
0.2500000000000002
 40
0.3125000000000002
 40
0.3125000000000002
 40
0.3750000000000001
 40
0.3750000000000001
 40
0.4375000000000001
 40
0.4375000000000001
 40
0.5
 40
0.5624999999999999
 40
0.5624999999999999
 40
0.6249999999999999
 40
0.6249999999999999
 40
0.6874999999999998
 40
0.6874999999999998
 40
0.7499999999999998
 40
0.7499999999999998
 40
0.8124999999999998
 40
0.8124999999999998
 40
0.8749999999999999
 40
0.8749999999999999
 40
0.9374999999999999
 40
1.0
 40
1.0
 40
1.0
 40
1.0
 10
134.0473534829919
 20
40.62300928380485
 30
0.0000000000000007
 10
133.4823001146748
 20
40.6119963791807
 30
0.0000000000000007
 10
132.3521965725826
 20
40.59728225312607
 30
0.0000000000000007
 10
131.222098313297
 20
40.59465944046788
 30
0.0000000000000007
 10
130.092002059257
 20
40.59662624377309
 30
0.0000000000000007
 10
129.5269549344181
 20
40.59990344236084
 30
0.0000000000000007
 10
128.3968619739206
 20
40.6094085218193
 30
0.0000000000000007
 10
127.8318161368796
 20
40.61563323878098
 30
0.0000000000000007
 10
126.7017249817791
 20
40.62927051952307
 30
0.0000000000000007
 10
126.1366796611579
 20
40.63667722056027
 30
0.0000000000000007
 10
125.0065887730706
 20
40.65092564263717
 30
0.0000000000000007
 10
124.4415432020592
 20
40.65775924915354
 30
0.0000000000000007
 10
123.3114511447391
 20
40.66933152545018
 30
0.0000000000000007
 10
122.7464046548024
 20
40.67406189131828
 30
0.0000000000000007
 10
121.6163103003855
 20
40.68037656134096
 30
0.0000000000000007
 10
120.4862145667015
 20
40.68353435799837
 30
0.0000000000000007
 10
119.356115773237
 20
40.6796889141602
 30
0.0000000000000007
 10
118.2260156337061
 20
40.6727625870173
 30
0.0000000000000007
 10
117.6609648933995
 20
40.66776468565264
 30
0.0000000000000007
 10
116.5308625494073
 20
40.65579277656359
 30
0.0000000000000007
 10
115.9658109494016
 20
40.64882719177286
 30
0.0000000000000007
 10
114.8357075695876
 20
40.63448448888018
 30
0.0000000000000007
 10
114.2706557932552
 20
40.62711532641244
 30
0.0000000000000007
 10
113.1405528328191
 20
40.6137324977318
 30
0.0000000000000007
 10
112.5755016511586
 20
40.60772442335505
 30
0.0000000000000007
 10
111.4454006492454
 20
40.59882427142337
 30
0.0000000000000007
 10
110.8803508302667
 20
40.59593510987224
 30
0.0000000000000007
 10
109.750253264267
 20
40.59489909330873
 30
0.0000000000000007
 10
108.620157771147
 20
40.59860749419884
 30
0.0000000000000007
 10
107.4900676783852
 20
40.61467626109493
 30
0.0000000000000007
 10
106.9250242547842
 20
40.62642487097014
 30
0.0000000000000007
  0
SPLINE
  5
113
330
1F
100
AcDbEntity
  8
1
  6
Continuous
 62
     1
370
    18
100
AcDbSpline
210
0.0
220
0.0
230
1.0
 70
     8
 71
     3
 72
     8
 73
     4
 74
     0
 42
0.000000001
 43
0.0000000001
 40
0.0
 40
0.0
 40
0.0
 40
0.0
 40
1.0
 40
1.0
 40
1.0
 40
1.0
 10
136.4150073100826
 20
41.29445105941844
 30
0.0000000000000006
 10
136.4396058311991
 20
41.33240694078507
 30
0.0000000000000006
 10
136.4639731131157
 20
41.36792270588855
 30
0.0000000000000006
 10
136.4884218317326
 20
41.40103974955212
 30
0.0000000000000006
  0
SPLINE
  5
114
330
1F
100
AcDbEntity
  8
1
  6
Continuous
 62
     1
370
    18
100
AcDbSpline
210
0.0
220
0.0
230
1.0
 70
     8
 71
     3
 72
     8
 73
     4
 74
     0
 42
0.000000001
 43
0.0000000001
 40
0.0
 40
0.0
 40
0.0
 40
0.0
 40
1.0
 40
1.0
 40
1.0
 40
1.0
 10
104.5428273399765
 20
61.97169086068853
 30
-0.0000000000000006
 10
104.5244669341836
 20
61.94361279413278
 30
-0.0000000000000006
 10
104.5062833168924
 20
61.91691241156899
 30
-0.0000000000000006
 10
104.4881503589258
 20
61.8915659889497
 30
-0.0000000000000006
  0
SPLINE
  5
115
330
1F
100
AcDbEntity
  8
1
  6
Continuous
 62
     1
370
    18
100
AcDbSpline
210
0.0
220
0.0
230
1.0
 70
     8
 71
     3
 72
     9
 73
     5
 74
     0
 42
0.000000001
 43
0.0000000001
 40
0.0
 40
0.0
 40
0.0
 40
0.0
 40
0.2999859900380717
 40
1.0
 40
1.0
 40
1.0
 40
1.0
 10
136.4841107557374
 20
61.89032436610517
 30
-0.0000000000000006
 10
136.4766445199816
 20
61.90051728051447
 30
-0.0000000000000006
 10
136.4519964990048
 20
61.93548260344289
 30
-0.0000000000000006
 10
136.4284782426765
 20
61.97395789871695
 30
-0.0000000000000006
 10
136.412167434757
 20
62.00234339416604
 30
-0.0000000000000006
  0
SPLINE
  5
116
330
1F
100
AcDbEntity
  8
1
  6
Continuous
 62
     1
370
    18
100
AcDbSpline
210
0.0
220
0.0
230
1.0
 70
     8
 71
     3
 72
     8
 73
     4
 74
     0
 42
0.000000001
 43
0.0000000001
 40
0.0
 40
0.0
 40
0.0
 40
0.0
 40
1.0
 40
1.0
 40
1.0
 40
1.0
 10
104.4955985829916
 20
41.39721031168268
 30
0.0000000000000006
 10
104.5125722654364
 20
41.3719909001351
 30
0.0000000000000006
 10
104.5291182655839
 20
41.3450874984853
 30
0.0000000000000006
 10
104.5455712251049
 20
41.31670031205677
 30
0.0000000000000006
  0
LINE
  5
117
330
1F
100
AcDbEntity
  8
1
  6
CENTER
 62
    30
370
    13
100
AcDbLine
 10
120.570987
 20
177.453837
 30
0.0
 11
120.570987
 21
291.453837
 31
0.0
  0
LINE
  5
118
330
1F
100
AcDbEntity
  8
1
  6
CENTER
 62
    30
370
    13
100
AcDbLine
 10
84.570987
 20
246.453837
 30
0.0
 11
158.570987
 21
246.453837
 31
0.0
  0
ENDSEC
  0
SECTION
  2
OBJECTS
  0
DICTIONARY
  5
C
330
0
100
AcDbDictionary
281
     1
  3
ACAD_DETAILVIEWSTYLE
350
16D
  3
ACAD_GROUP
350
D
  3
ACAD_LAYOUT
350
1A
  3
ACAD_MATERIAL
350
43
  3
ACAD_MLEADERSTYLE
350
6B
  3
ACAD_MLINESTYLE
350
17
  3
ACAD_PLOTSETTINGS
350
19
  3
ACAD_PLOTSTYLENAME
350
E
  3
ACAD_SCALELIST
350
47
  3
ACAD_SECTIONVIEWSTYLE
350
16E
  3
ACAD_TABLESTYLE
350
69
  3
ACAD_VISUALSTYLE
350
2A
  3
ACDB_RECOMPOSE_DATA
350
16A
  3
AcDbVariableDictionary
350
12A
  0
DICTIONARY
  5
128
330
8
100
AcDbDictionary
280
     1
281
     1
  3
ACAD_XREC_ROUNDTRIP
360
129
  0
DICTIONARY
  5
16D
102
{ACAD_REACTORS
330
C
102
}
330
C
100
AcDbDictionary
281
     1
  0
DICTIONARY
  5
D
102
{ACAD_REACTORS
330
C
102
}
330
C
100
AcDbDictionary
281
     1
  0
DICTIONARY
  5
1A
102
{ACAD_REACTORS
330
C
102
}
330
C
100
AcDbDictionary
281
     1
  3
Layout1
350
1E
  3
Layout2
350
26
  3
Model
350
22
  0
DICTIONARY
  5
43
102
{ACAD_REACTORS
330
C
102
}
330
C
100
AcDbDictionary
281
     1
  3
ByBlock
350
45
  3
ByLayer
350
44
  3
Global
350
46
  0
DICTIONARY
  5
6B
102
{ACAD_REACTORS
330
C
102
}
330
C
100
AcDbDictionary
281
     1
  3
Standard
350
6C
  0
DICTIONARY
  5
17
102
{ACAD_REACTORS
330
C
102
}
330
C
100
AcDbDictionary
281
     1
  3
Standard
350
18
  0
DICTIONARY
  5
19
102
{ACAD_REACTORS
330
C
102
}
330
C
100
AcDbDictionary
281
     1
  0
ACDBDICTIONARYWDFLT
  5
E
102
{ACAD_REACTORS
330
C
102
}
330
C
100
AcDbDictionary
281
     1
  3
Normal
350
F
100
AcDbDictionaryWithDefault
340
F
  0
DICTIONARY
  5
47
102
{ACAD_REACTORS
330
C
102
}
330
C
100
AcDbDictionary
281
     1
  3
A0
350
48
  3
A1
350
49
  3
A2
350
4A
  3
A3
350
4B
  3
A4
350
4C
  3
A5
350
4D
  3
A6
350
4E
  3
A7
350
4F
  3
A8
350
50
  3
A9
350
51
  3
B0
350
52
  3
B1
350
53
  3
B2
350
54
  3
B3
350
55
  3
B4
350
56
  3
B5
350
57
  3
B6
350
58
  3
B7
350
59
  3
B8
350
5A
  3
B9
350
5B
  3
C0
350
5C
  3
C1
350
5D
  3
C2
350
5E
  3
C3
350
5F
  3
C4
350
60
  3
C5
350
61
  3
C6
350
62
  3
C7
350
63
  3
C8
350
64
  3
C9
350
65
  3
D0
350
66
  3
D1
350
67
  3
D2
350
68
  0
DICTIONARY
  5
16E
102
{ACAD_REACTORS
330
C
102
}
330
C
100
AcDbDictionary
281
     1
  0
DICTIONARY
  5
69
102
{ACAD_REACTORS
330
C
102
}
330
C
100
AcDbDictionary
281
     1
  3
Standard
350
6A
  0
DICTIONARY
  5
2A
102
{ACAD_REACTORS
330
C
102
}
330
C
100
AcDbDictionary
281
     1
  3
2dWireframe
350
2F
  3
Basic
350
32
  3
Brighten
350
36
  3
ColorChange
350
3A
  3
Conceptual
350
34
  3
Dim
350
35
  3
EdgeColorOff
350
3D
  3
Facepattern
350
39
  3
Flat
350
2B
  3
FlatWithEdges
350
2C
  3
Gouraud
350
2D
  3
GouraudWithEdges
350
2E
  3
Hidden
350
31
  3
JitterOff
350
3B
  3
Linepattern
350
38
  3
OverhangOff
350
3C
  3
Realistic
350
33
  3
Shaded
350
42
  3
Shaded with edges
350
41
  3
Shades of Gray
350
3E
  3
Sketchy
350
3F
  3
Thicken
350
37
  3
Wireframe
350
30
  3
X-Ray
350
40
  0
XRECORD
  5
16A
102
{ACAD_REACTORS
330
C
102
}
330
C
100
AcDbXrecord
280
     1
 90
        1
330
6A
  0
DICTIONARY
  5
12A
102
{ACAD_REACTORS
330
C
102
}
330
C
100
AcDbDictionary
281
     1
  3
CANNOSCALE
350
12B
  3
CMLEADERSTYLE
350
16C
  3
CTABLESTYLE
350
16B
  3
MSLTSCALE
350
12C
  3
XCLIPFRAME
350
12D
  0
XRECORD
  5
129
102
{ACAD_REACTORS
330
128
102
}
330
128
100
AcDbXrecord
280
     1
102
VTR_0.000_0.000_1.000_1.000_VISUALSTYLE
340
2F
102
VTR_0.000_0.000_1.000_1.000_GRIDDISPLAY
 70
     3
102
VTR_0.000_0.000_1.000_1.000_GRIDMAJOR
 70
     5
102
VTR_0.000_0.000_1.000_1.000_DEFAULTLIGHTING
280
     1
102
VTR_0.000_0.000_1.000_1.000_DEFAULTLIGHTINGTYPE
 70
     1
102
VTR_0.000_0.000_1.000_1.000_BRIGHTNESS
141
0.0
102
VTR_0.000_0.000_1.000_1.000_CONTRAST
142
0.0
102
VTR_0.000_0.000_0.500_1.000_VISUALSTYLE
340
2F
102
VTR_0.000_0.000_0.500_1.000_GRIDDISPLAY
 70
     3
102
VTR_0.000_0.000_0.500_1.000_GRIDMAJOR
 70
     5
102
VTR_0.000_0.000_0.500_1.000_DEFAULTLIGHTING
280
     1
102
VTR_0.000_0.000_0.500_1.000_DEFAULTLIGHTINGTYPE
 70
     1
102
VTR_0.000_0.000_0.500_1.000_BRIGHTNESS
141
0.0
102
VTR_0.000_0.000_0.500_1.000_CONTRAST
142
0.0
102
VTR_0.500_0.000_1.000_1.000_VISUALSTYLE
340
2F
102
VTR_0.500_0.000_1.000_1.000_GRIDDISPLAY
 70
     3
102
VTR_0.500_0.000_1.000_1.000_GRIDMAJOR
 70
     5
102
VTR_0.500_0.000_1.000_1.000_DEFAULTLIGHTING
280
     1
102
VTR_0.500_0.000_1.000_1.000_DEFAULTLIGHTINGTYPE
 70
     1
102
VTR_0.500_0.000_1.000_1.000_BRIGHTNESS
141
0.0
102
VTR_0.500_0.000_1.000_1.000_CONTRAST
142
0.0
102
VTR_0.000_0.500_1.000_1.000_VISUALSTYLE
340
2F
102
VTR_0.000_0.500_1.000_1.000_GRIDDISPLAY
 70
     3
102
VTR_0.000_0.500_1.000_1.000_GRIDMAJOR
 70
     5
102
VTR_0.000_0.500_1.000_1.000_DEFAULTLIGHTING
280
     1
102
VTR_0.000_0.500_1.000_1.000_DEFAULTLIGHTINGTYPE
 70
     1
102
VTR_0.000_0.500_1.000_1.000_BRIGHTNESS
141
0.0
102
VTR_0.000_0.500_1.000_1.000_CONTRAST
142
0.0
102
VTR_0.000_0.000_1.000_0.500_VISUALSTYLE
340
2F
102
VTR_0.000_0.000_1.000_0.500_GRIDDISPLAY
 70
     3
102
VTR_0.000_0.000_1.000_0.500_GRIDMAJOR
 70
     5
102
VTR_0.000_0.000_1.000_0.500_DEFAULTLIGHTING
280
     1
102
VTR_0.000_0.000_1.000_0.500_DEFAULTLIGHTINGTYPE
 70
     1
102
VTR_0.000_0.000_1.000_0.500_BRIGHTNESS
141
0.0
102
VTR_0.000_0.000_1.000_0.500_CONTRAST
142
0.0
102
VTR_0.000_0.500_0.500_1.000_VISUALSTYLE
340
2F
102
VTR_0.000_0.500_0.500_1.000_GRIDDISPLAY
 70
     3
102
VTR_0.000_0.500_0.500_1.000_GRIDMAJOR
 70
     5
102
VTR_0.000_0.500_0.500_1.000_DEFAULTLIGHTING
280
     1
102
VTR_0.000_0.500_0.500_1.000_DEFAULTLIGHTINGTYPE
 70
     1
102
VTR_0.000_0.500_0.500_1.000_BRIGHTNESS
141
0.0
102
VTR_0.000_0.500_0.500_1.000_CONTRAST
142
0.0
102
VTR_0.000_0.000_0.500_0.500_VISUALSTYLE
340
2F
102
VTR_0.000_0.000_0.500_0.500_GRIDDISPLAY
 70
     3
102
VTR_0.000_0.000_0.500_0.500_GRIDMAJOR
 70
     5
102
VTR_0.000_0.000_0.500_0.500_DEFAULTLIGHTING
280
     1
102
VTR_0.000_0.000_0.500_0.500_DEFAULTLIGHTINGTYPE
 70
     1
102
VTR_0.000_0.000_0.500_0.500_BRIGHTNESS
141
0.0
102
VTR_0.000_0.000_0.500_0.500_CONTRAST
142
0.0
102
VTR_0.500_0.000_1.000_0.500_VISUALSTYLE
340
2F
102
VTR_0.500_0.000_1.000_0.500_GRIDDISPLAY
 70
     3
102
VTR_0.500_0.000_1.000_0.500_GRIDMAJOR
 70
     5
102
VTR_0.500_0.000_1.000_0.500_DEFAULTLIGHTING
280
     1
102
VTR_0.500_0.000_1.000_0.500_DEFAULTLIGHTINGTYPE
 70
     1
102
VTR_0.500_0.000_1.000_0.500_BRIGHTNESS
141
0.0
102
VTR_0.500_0.000_1.000_0.500_CONTRAST
142
0.0
102
VTR_0.500_0.500_1.000_1.000_VISUALSTYLE
340
2F
102
VTR_0.500_0.500_1.000_1.000_GRIDDISPLAY
 70
     3
102
VTR_0.500_0.500_1.000_1.000_GRIDMAJOR
 70
     5
102
VTR_0.500_0.500_1.000_1.000_DEFAULTLIGHTING
280
     1
102
VTR_0.500_0.500_1.000_1.000_DEFAULTLIGHTINGTYPE
 70
     1
102
VTR_0.500_0.500_1.000_1.000_BRIGHTNESS
141
0.0
102
VTR_0.500_0.500_1.000_1.000_CONTRAST
142
0.0
102
VTR_0.000_0.500_0.333_1.000_VISUALSTYLE
340
2F
102
VTR_0.000_0.500_0.333_1.000_GRIDDISPLAY
 70
     3
102
VTR_0.000_0.500_0.333_1.000_GRIDMAJOR
 70
     5
102
VTR_0.000_0.500_0.333_1.000_DEFAULTLIGHTING
280
     1
102
VTR_0.000_0.500_0.333_1.000_DEFAULTLIGHTINGTYPE
 70
     1
102
VTR_0.000_0.500_0.333_1.000_BRIGHTNESS
141
0.0
102
VTR_0.000_0.500_0.333_1.000_CONTRAST
142
0.0
102
VTR_0.000_0.000_0.333_0.500_VISUALSTYLE
340
2F
102
VTR_0.000_0.000_0.333_0.500_GRIDDISPLAY
 70
     3
102
VTR_0.000_0.000_0.333_0.500_GRIDMAJOR
 70
     5
102
VTR_0.000_0.000_0.333_0.500_DEFAULTLIGHTING
280
     1
102
VTR_0.000_0.000_0.333_0.500_DEFAULTLIGHTINGTYPE
 70
     1
102
VTR_0.000_0.000_0.333_0.500_BRIGHTNESS
141
0.0
102
VTR_0.000_0.000_0.333_0.500_CONTRAST
142
0.0
102
VTR_0.333_0.500_0.667_1.000_VISUALSTYLE
340
2F
102
VTR_0.333_0.500_0.667_1.000_GRIDDISPLAY
 70
     3
102
VTR_0.333_0.500_0.667_1.000_GRIDMAJOR
 70
     5
102
VTR_0.333_0.500_0.667_1.000_DEFAULTLIGHTING
280
     1
102
VTR_0.333_0.500_0.667_1.000_DEFAULTLIGHTINGTYPE
 70
     1
102
VTR_0.333_0.500_0.667_1.000_BRIGHTNESS
141
0.0
102
VTR_0.333_0.500_0.667_1.000_CONTRAST
142
0.0
102
VTR_0.333_0.000_0.667_0.500_VISUALSTYLE
340
2F
102
VTR_0.333_0.000_0.667_0.500_GRIDDISPLAY
 70
     3
102
VTR_0.333_0.000_0.667_0.500_GRIDMAJOR
 70
     5
102
VTR_0.333_0.000_0.667_0.500_DEFAULTLIGHTING
280
     1
102
VTR_0.333_0.000_0.667_0.500_DEFAULTLIGHTINGTYPE
 70
     1
102
VTR_0.333_0.000_0.667_0.500_BRIGHTNESS
141
0.0
102
VTR_0.333_0.000_0.667_0.500_CONTRAST
142
0.0
102
VTR_0.667_0.500_1.000_1.000_VISUALSTYLE
340
2F
102
VTR_0.667_0.500_1.000_1.000_GRIDDISPLAY
 70
     3
102
VTR_0.667_0.500_1.000_1.000_GRIDMAJOR
 70
     5
102
VTR_0.667_0.500_1.000_1.000_DEFAULTLIGHTING
280
     1
102
VTR_0.667_0.500_1.000_1.000_DEFAULTLIGHTINGTYPE
 70
     1
102
VTR_0.667_0.500_1.000_1.000_BRIGHTNESS
141
0.0
102
VTR_0.667_0.500_1.000_1.000_CONTRAST
142
0.0
102
VTR_0.667_0.000_1.000_0.500_VISUALSTYLE
340
2F
102
VTR_0.667_0.000_1.000_0.500_GRIDDISPLAY
 70
     3
102
VTR_0.667_0.000_1.000_0.500_GRIDMAJOR
 70
     5
102
VTR_0.667_0.000_1.000_0.500_DEFAULTLIGHTING
280
     1
102
VTR_0.667_0.000_1.000_0.500_DEFAULTLIGHTINGTYPE
 70
     1
102
VTR_0.667_0.000_1.000_0.500_BRIGHTNESS
141
0.0
102
VTR_0.667_0.000_1.000_0.500_CONTRAST
142
0.0
  0
LAYOUT
  5
1E
102
{ACAD_REACTORS
330
1A
102
}
330
1A
100
AcDbPlotSettings
  1

  2
none_device
  4

  6

 40
0.0
 41
0.0
 42
0.0
 43
0.0
 44
0.0
 45
0.0
 46
0.0
 47
0.0
 48
0.0
 49
0.0
140
0.0
141
0.0
142
1.0
143
1.0
 70
   688
 72
     0
 73
     0
 74
     5
  7

 75
    16
 76
     0
 77
     2
 78
   300
147
1.0
148
0.0
149
0.0
100
AcDbLayout
  1
Layout1
 70
     1
 71
     1
 10
-0.5
 20
-0.5
 11
5.0
 21
5.0
 12
0.0
 22
0.0
 32
0.0
 14
-0.5
 24
-0.5
 34
-0.5
 15
5.0
 25
5.0
 35
5.0
146
0.0
 13
0.0
 23
0.0
 33
0.0
 16
1.0
 26
0.0
 36
0.0
 17
0.0
 27
1.0
 37
0.0
 76
     0
330
1B
  0
LAYOUT
  5
26
102
{ACAD_REACTORS
330
1A
102
}
330
1A
100
AcDbPlotSettings
  1

  2
none_device
  4

  6

 40
0.0
 41
0.0
 42
0.0
 43
0.0
 44
0.0
 45
0.0
 46
0.0
 47
0.0
 48
0.0
 49
0.0
140
0.0
141
0.0
142
1.0
143
1.0
 70
   688
 72
     0
 73
     0
 74
     5
  7

 75
    16
 76
     0
 77
     2
 78
   300
147
1.0
148
0.0
149
0.0
100
AcDbLayout
  1
Layout2
 70
     1
 71
     2
 10
0.0
 20
0.0
 11
0.0
 21
0.0
 12
0.0
 22
0.0
 32
0.0
 14
0.0
 24
0.0
 34
0.0
 15
0.0
 25
0.0
 35
0.0
146
0.0
 13
0.0
 23
0.0
 33
0.0
 16
1.0
 26
0.0
 36
0.0
 17
0.0
 27
1.0
 37
0.0
 76
     0
330
23
  0
LAYOUT
  5
22
102
{ACAD_REACTORS
330
1A
102
}
330
1A
100
AcDbPlotSettings
  1

  2
none_device
  4
Letter_(8.50_x_11.00_Inches)
  6

 40
6.35
 41
6.35
 42
6.350005
 43
6.350005
 44
215.9
 45
279.4
 46
0.0
 47
0.0
 48
0.0
 49
0.0
140
0.0
141
0.0
142
1.0
143
1.0
 70
  1712
 72
     0
 73
     0
 74
     0
  7

 75
     0
 76
     0
 77
     2
 78
   300
147
1.0
148
0.0
149
0.0
100
AcDbLayout
  1
Model
 70
     1
 71
     0
 10
-0.5
 20
-0.5
 11
5.0
 21
5.0
 12
0.0
 22
0.0
 32
0.0
 14
-0.5
 24
-0.5
 34
-0.5
 15
5.0
 25
5.0
 35
5.0
146
0.0
 13
0.0
 23
0.0
 33
0.0
 16
1.0
 26
0.0
 36
0.0
 17
0.0
 27
1.0
 37
0.0
 76
     0
330
1F
331
29
  0
MATERIAL
  5
45
102
{ACAD_REACTORS
330
43
102
}
102
{ACAD_XDICTIONARY
360
160
102
}
330
43
100
AcDbMaterial
  1
ByBlock
  0
MATERIAL
  5
44
102
{ACAD_REACTORS
330
43
102
}
102
{ACAD_XDICTIONARY
360
15E
102
}
330
43
100
AcDbMaterial
  1
ByLayer
  0
MATERIAL
  5
46
102
{ACAD_REACTORS
330
43
102
}
102
{ACAD_XDICTIONARY
360
162
102
}
330
43
100
AcDbMaterial
  1
Global
  0
MLEADERSTYLE
  5
6C
102
{ACAD_REACTORS
330
6B
102
}
102
{ACAD_XDICTIONARY
360
168
102
}
330
6B
100
AcDbMLeaderStyle
170
     2
171
     1
172
     0
 90
        2
 40
0.0
 41
0.0
173
     1
 91
-1056964608
340
14
 92
       -2
290
     1
 42
0.09
291
     1
 43
0.36
  3
Standard
341
0
 44
0.18
300

342
11
174
     1
178
     6
175
     1
176
     0
 93
-1056964608
 45
0.18
292
     0
297
     0
 46
0.18
343
0
 94
-1056964608
 47
1.0
 49
1.0
140
1.0
293
     1
141
0.0
294
     1
177
     0
142
1.0
295
     0
296
     0
143
0.125
1001
ACAD_MLEADERVER
1070
     2
  0
MLINESTYLE
  5
18
102
{ACAD_REACTORS
330
17
102
}
330
17
100
AcDbMlineStyle
  2
Standard
 70
     0
  3

 62
   256
 51
90.0
 52
90.0
 71
     2
 49
0.5
 62
   256
  6
BYLAYER
 49
-0.5
 62
   256
  6
BYLAYER
  0
ACDBPLACEHOLDER
  5
F
102
{ACAD_REACTORS
330
E
102
}
330
E
  0
SCALE
  5
48
102
{ACAD_REACTORS
330
47
102
}
330
47
100
AcDbScale
 70
     0
300
1:1
140
1.0
141
1.0
290
     1
  0
SCALE
  5
49
102
{ACAD_REACTORS
330
47
102
}
330
47
100
AcDbScale
 70
     0
300
1:2
140
1.0
141
2.0
290
     0
  0
SCALE
  5
4A
102
{ACAD_REACTORS
330
47
102
}
330
47
100
AcDbScale
 70
     0
300
1:4
140
1.0
141
4.0
290
     0
  0
SCALE
  5
4B
102
{ACAD_REACTORS
330
47
102
}
330
47
100
AcDbScale
 70
     0
300
1:5
140
1.0
141
5.0
290
     0
  0
SCALE
  5
4C
102
{ACAD_REACTORS
330
47
102
}
330
47
100
AcDbScale
 70
     0
300
1:8
140
1.0
141
8.0
290
     0
  0
SCALE
  5
4D
102
{ACAD_REACTORS
330
47
102
}
330
47
100
AcDbScale
 70
     0
300
1:10
140
1.0
141
10.0
290
     0
  0
SCALE
  5
4E
102
{ACAD_REACTORS
330
47
102
}
330
47
100
AcDbScale
 70
     0
300
1:16
140
1.0
141
16.0
290
     0
  0
SCALE
  5
4F
102
{ACAD_REACTORS
330
47
102
}
330
47
100
AcDbScale
 70
     0
300
1:20
140
1.0
141
20.0
290
     0
  0
SCALE
  5
50
102
{ACAD_REACTORS
330
47
102
}
330
47
100
AcDbScale
 70
     0
300
1:30
140
1.0
141
30.0
290
     0
  0
SCALE
  5
51
102
{ACAD_REACTORS
330
47
102
}
330
47
100
AcDbScale
 70
     0
300
1:40
140
1.0
141
40.0
290
     0
  0
SCALE
  5
52
102
{ACAD_REACTORS
330
47
102
}
330
47
100
AcDbScale
 70
     0
300
1:50
140
1.0
141
50.0
290
     0
  0
SCALE
  5
53
102
{ACAD_REACTORS
330
47
102
}
330
47
100
AcDbScale
 70
     0
300
1:100
140
1.0
141
100.0
290
     0
  0
SCALE
  5
54
102
{ACAD_REACTORS
330
47
102
}
330
47
100
AcDbScale
 70
     0
300
2:1
140
2.0
141
1.0
290
     0
  0
SCALE
  5
55
102
{ACAD_REACTORS
330
47
102
}
330
47
100
AcDbScale
 70
     0
300
4:1
140
4.0
141
1.0
290
     0
  0
SCALE
  5
56
102
{ACAD_REACTORS
330
47
102
}
330
47
100
AcDbScale
 70
     0
300
8:1
140
8.0
141
1.0
290
     0
  0
SCALE
  5
57
102
{ACAD_REACTORS
330
47
102
}
330
47
100
AcDbScale
 70
     0
300
10:1
140
10.0
141
1.0
290
     0
  0
SCALE
  5
58
102
{ACAD_REACTORS
330
47
102
}
330
47
100
AcDbScale
 70
     0
300
100:1
140
100.0
141
1.0
290
     0
  0
SCALE
  5
59
102
{ACAD_REACTORS
330
47
102
}
330
47
100
AcDbScale
 70
     0
300
1/128" = 1'-0"
140
0.007812
141
12.0
290
     0
  0
SCALE
  5
5A
102
{ACAD_REACTORS
330
47
102
}
330
47
100
AcDbScale
 70
     0
300
1/64" = 1'-0"
140
0.015625
141
12.0
290
     0
  0
SCALE
  5
5B
102
{ACAD_REACTORS
330
47
102
}
330
47
100
AcDbScale
 70
     0
300
1/32" = 1'-0"
140
0.03125
141
12.0
290
     0
  0
SCALE
  5
5C
102
{ACAD_REACTORS
330
47
102
}
330
47
100
AcDbScale
 70
     0
300
1/16" = 1'-0"
140
0.0625
141
12.0
290
     0
  0
SCALE
  5
5D
102
{ACAD_REACTORS
330
47
102
}
330
47
100
AcDbScale
 70
     0
300
3/32" = 1'-0"
140
0.09375
141
12.0
290
     0
  0
SCALE
  5
5E
102
{ACAD_REACTORS
330
47
102
}
330
47
100
AcDbScale
 70
     0
300
1/8" = 1'-0"
140
0.125
141
12.0
290
     0
  0
SCALE
  5
5F
102
{ACAD_REACTORS
330
47
102
}
330
47
100
AcDbScale
 70
     0
300
3/16" = 1'-0"
140
0.1875
141
12.0
290
     0
  0
SCALE
  5
60
102
{ACAD_REACTORS
330
47
102
}
330
47
100
AcDbScale
 70
     0
300
1/4" = 1'-0"
140
0.25
141
12.0
290
     0
  0
SCALE
  5
61
102
{ACAD_REACTORS
330
47
102
}
330
47
100
AcDbScale
 70
     0
300
3/8" = 1'-0"
140
0.375
141
12.0
290
     0
  0
SCALE
  5
62
102
{ACAD_REACTORS
330
47
102
}
330
47
100
AcDbScale
 70
     0
300
1/2" = 1'-0"
140
0.5
141
12.0
290
     0
  0
SCALE
  5
63
102
{ACAD_REACTORS
330
47
102
}
330
47
100
AcDbScale
 70
     0
300
3/4" = 1'-0"
140
0.75
141
12.0
290
     0
  0
SCALE
  5
64
102
{ACAD_REACTORS
330
47
102
}
330
47
100
AcDbScale
 70
     0
300
1" = 1'-0"
140
1.0
141
12.0
290
     0
  0
SCALE
  5
65
102
{ACAD_REACTORS
330
47
102
}
330
47
100
AcDbScale
 70
     0
300
1-1/2" = 1'-0"
140
1.5
141
12.0
290
     0
  0
SCALE
  5
66
102
{ACAD_REACTORS
330
47
102
}
330
47
100
AcDbScale
 70
     0
300
3" = 1'-0"
140
3.0
141
12.0
290
     0
  0
SCALE
  5
67
102
{ACAD_REACTORS
330
47
102
}
330
47
100
AcDbScale
 70
     0
300
6" = 1'-0"
140
6.0
141
12.0
290
     0
  0
SCALE
  5
68
102
{ACAD_REACTORS
330
47
102
}
330
47
100
AcDbScale
 70
     0
300
1'-0" = 1'-0"
140
12.0
141
12.0
290
     0
  0
TABLESTYLE
  5
6A
102
{ACAD_REACTORS
330
69
102
}
102
{ACAD_XDICTIONARY
360
164
102
}
330
69
100
AcDbTableStyle
  3
Standard
 70
     0
 71
     0
 40
0.06
 41
0.06
280
     0
281
     0
  7
Standard
140
0.18
170
     2
 62
     0
 63
   257
283
     0
274
    -2
284
     1
 64
     0
275
    -2
285
     1
 65
     0
276
    -2
286
     1
 66
     0
277
    -2
287
     1
 67
     0
278
    -2
288
     1
 68
     0
279
    -2
289
     1
 69
     0
  7
Standard
140
0.25
170
     5
 62
     0
 63
   257
283
     0
274
    -2
284
     1
 64
     0
275
    -2
285
     1
 65
     0
276
    -2
286
     1
 66
     0
277
    -2
287
     1
 67
     0
278
    -2
288
     1
 68
     0
279
    -2
289
     1
 69
     0
  7
Standard
140
0.18
170
     5
 62
     0
 63
   257
283
     0
274
    -2
284
     1
 64
     0
275
    -2
285
     1
 65
     0
276
    -2
286
     1
 66
     0
277
    -2
287
     1
 67
     0
278
    -2
288
     1
 68
     0
279
    -2
289
     1
 69
     0
  0
VISUALSTYLE
  5
2F
102
{ACAD_REACTORS
330
2A
102
}
102
{ACAD_XDICTIONARY
360
136
102
}
330
2A
100
AcDbVisualStyle
  2
2dWireframe
 70
     4
 71
     0
 72
     2
 73
     0
 90
        0
 40
0.6
 41
30.0
 62
     5
 63
     7
421
 16777215
 74
     1
 91
        4
 64
     7
 65
   257
 75
     1
175
     1
 42
1.0
 92
        0
 66
   257
 43
1.0
 76
     1
 77
     6
 78
     2
 67
     7
 79
     5
170
     0
171
     0
290
     0
174
     0
 93
        1
 44
0.0
173
     0
291
     0
 45
0.0
1001
ACAD
1000
AcDbSavedByObjectVersion
1070
     0
  0
VISUALSTYLE
  5
32
102
{ACAD_REACTORS
330
2A
102
}
102
{ACAD_XDICTIONARY
360
13C
102
}
330
2A
100
AcDbVisualStyle
  2
Basic
 70
     7
 71
     1
 72
     0
 73
     1
 90
        0
 40
0.6
 41
30.0
 62
     5
 63
     7
421
 16777215
 74
     0
 91
        4
 64
     7
 65
   257
 75
     1
175
     1
 42
1.0
 92
        8
 66
     7
 43
1.0
 76
     1
 77
     6
 78
     2
 67
     7
 79
     5
170
     0
171
     0
290
     0
174
     0
 93
        1
 44
0.0
173
     0
291
     1
 45
0.0
1001
ACAD
1000
AcDbSavedByObjectVersion
1070
     0
  0
VISUALSTYLE
  5
36
102
{ACAD_REACTORS
330
2A
102
}
102
{ACAD_XDICTIONARY
360
144
102
}
330
2A
100
AcDbVisualStyle
  2
Brighten
 70
    12
 71
     2
 72
     2
 73
     0
 90
        0
 40
0.6
 41
30.0
 62
     5
 63
     7
421
 16777215
 74
     1
 91
        4
 64
     7
 65
   257
 75
     1
175
     1
 42
1.0
 92
        8
 66
     7
 43
1.0
 76
     1
 77
     6
 78
     2
 67
     7
 79
     5
170
     0
171
     0
290
     0
174
     0
 93
        1
 44
50.0
173
     0
291
     1
 45
0.0
1001
ACAD
1000
AcDbSavedByObjectVersion
1070
     0
  0
VISUALSTYLE
  5
3A
102
{ACAD_REACTORS
330
2A
102
}
102
{ACAD_XDICTIONARY
360
14C
102
}
330
2A
100
AcDbVisualStyle
  2
ColorChange
 70
    16
 71
     2
 72
     2
 73
     3
 90
        0
 40
0.6
 41
30.0
 62
     5
 63
     8
421
  8421504
 74
     1
 91
        4
 64
     7
 65
   257
 75
     1
175
     1
 42
1.0
 92
        8
 66
     8
424
  8421504
 43
1.0
 76
     1
 77
     6
 78
     2
 67
     7
 79
     5
170
     0
171
     0
290
     0
174
     0
 93
        1
 44
0.0
173
     0
291
     1
 45
0.0
1001
ACAD
1000
AcDbSavedByObjectVersion
1070
     0
  0
VISUALSTYLE
  5
34
102
{ACAD_REACTORS
330
2A
102
}
102
{ACAD_XDICTIONARY
360
140
102
}
330
2A
100
AcDbVisualStyle
  2
Conceptual
 70
     9
 71
     3
 72
     2
 73
     0
 90
        0
 40
0.6
 41
30.0
 62
     5
 63
     7
421
 16777215
 74
     2
 91
        2
 64
     7
 65
   257
 75
     1
175
     1
 42
179.0
 92
        8
 66
     7
 43
1.0
 76
     1
 77
     6
 78
     2
 67
     7
 79
     3
170
     0
171
     0
290
     0
174
     0
 93
        1
 44
0.0
173
     0
291
     0
 45
0.0
1001
ACAD
1000
AcDbSavedByObjectVersion
1070
     0
  0
VISUALSTYLE
  5
35
102
{ACAD_REACTORS
330
2A
102
}
102
{ACAD_XDICTIONARY
360
142
102
}
330
2A
100
AcDbVisualStyle
  2
Dim
 70
    11
 71
     2
 72
     2
 73
     0
 90
        0
 40
0.6
 41
30.0
 62
     5
 63
     7
421
 16777215
 74
     1
 91
        4
 64
     7
 65
   257
 75
     1
175
     1
 42
1.0
 92
        8
 66
     7
 43
1.0
 76
     1
 77
     6
 78
     2
 67
     7
 79
     5
170
     0
171
     0
290
     0
174
     0
 93
        1
 44
-50.0
173
     0
291
     1
 45
0.0
1001
ACAD
1000
AcDbSavedByObjectVersion
1070
     0
  0
VISUALSTYLE
  5
3D
102
{ACAD_REACTORS
330
2A
102
}
102
{ACAD_XDICTIONARY
360
152
102
}
330
2A
100
AcDbVisualStyle
  2
EdgeColorOff
 70
    22
 71
     2
 72
     2
 73
     0
 90
        0
 40
0.6
 41
30.0
 62
     5
 63
     7
421
 16777215
 74
     1
 91
        4
 64
     7
 65
   257
 75
     1
175
     1
 42
1.0
 92
        8
 66
     7
 43
1.0
 76
     1
 77
     6
 78
     2
 67
     7
 79
     5
170
     0
171
     0
290
     0
174
     0
 93
        1
 44
0.0
173
     0
291
     1
 45
0.0
1001
ACAD
1000
AcDbSavedByObjectVersion
1070
     0
  0
VISUALSTYLE
  5
39
102
{ACAD_REACTORS
330
2A
102
}
102
{ACAD_XDICTIONARY
360
14A
102
}
330
2A
100
AcDbVisualStyle
  2
Facepattern
 70
    15
 71
     2
 72
     2
 73
     0
 90
        0
 40
0.6
 41
30.0
 62
     5
 63
     7
421
 16777215
 74
     1
 91
        4
 64
     7
 65
   257
 75
     1
175
     1
 42
1.0
 92
        8
 66
     7
 43
1.0
 76
     1
 77
     6
 78
     2
 67
     7
 79
     5
170
     0
171
     0
290
     0
174
     0
 93
        1
 44
0.0
173
     0
291
     1
 45
0.0
1001
ACAD
1000
AcDbSavedByObjectVersion
1070
     0
  0
VISUALSTYLE
  5
2B
102
{ACAD_REACTORS
330
2A
102
}
102
{ACAD_XDICTIONARY
360
12E
102
}
330
2A
100
AcDbVisualStyle
  2
Flat
 70
     0
 71
     2
 72
     1
 73
     1
 90
        2
 40
0.6
 41
30.0
 62
     5
 63
     7
421
 16777215
 74
     0
 91
        0
 64
     7
 65
   257
 75
     1
175
     1
 42
1.0
 92
        8
 66
     7
 43
1.0
 76
     1
 77
     6
 78
     2
 67
     7
 79
     5
170
     0
171
     0
290
     0
174
     0
 93
       13
 44
0.0
173
     0
291
     1
 45
0.0
1001
ACAD
1000
AcDbSavedByObjectVersion
1070
     0
  0
VISUALSTYLE
  5
2C
102
{ACAD_REACTORS
330
2A
102
}
102
{ACAD_XDICTIONARY
360
130
102
}
330
2A
100
AcDbVisualStyle
  2
FlatWithEdges
 70
     1
 71
     2
 72
     1
 73
     1
 90
        2
 40
0.6
 41
30.0
 62
     5
 63
     7
421
 16777215
 74
     1
 91
        0
 64
     7
 65
   257
 75
     1
175
     1
 42
1.0
 92
        0
 66
   257
 43
1.0
 76
     1
 77
     6
 78
     2
 67
     7
 79
     5
170
     0
171
     0
290
     0
174
     0
 93
       13
 44
0.0
173
     0
291
     1
 45
0.0
1001
ACAD
1000
AcDbSavedByObjectVersion
1070
     0
  0
VISUALSTYLE
  5
2D
102
{ACAD_REACTORS
330
2A
102
}
102
{ACAD_XDICTIONARY
360
132
102
}
330
2A
100
AcDbVisualStyle
  2
Gouraud
 70
     2
 71
     2
 72
     2
 73
     1
 90
        2
 40
0.6
 41
30.0
 62
     5
 63
     7
421
 16777215
 74
     0
 91
        0
 64
     7
 65
   257
 75
     1
175
     1
 42
1.0
 92
        0
 66
     7
 43
1.0
 76
     1
 77
     6
 78
     2
 67
     7
 79
     5
170
     0
171
     0
290
     0
174
     0
 93
       13
 44
0.0
173
     0
291
     1
 45
0.0
1001
ACAD
1000
AcDbSavedByObjectVersion
1070
     0
  0
VISUALSTYLE
  5
2E
102
{ACAD_REACTORS
330
2A
102
}
102
{ACAD_XDICTIONARY
360
134
102
}
330
2A
100
AcDbVisualStyle
  2
GouraudWithEdges
 70
     3
 71
     2
 72
     2
 73
     1
 90
        2
 40
0.6
 41
30.0
 62
     5
 63
     7
421
 16777215
 74
     1
 91
        0
 64
     7
 65
   257
 75
     1
175
     1
 42
1.0
 92
        0
 66
   257
 43
1.0
 76
     1
 77
     6
 78
     2
 67
     7
 79
     5
170
     0
171
     0
290
     0
174
     0
 93
       13
 44
0.0
173
     0
291
     1
 45
0.0
1001
ACAD
1000
AcDbSavedByObjectVersion
1070
     0
  0
VISUALSTYLE
  5
31
102
{ACAD_REACTORS
330
2A
102
}
102
{ACAD_XDICTIONARY
360
13A
102
}
330
2A
100
AcDbVisualStyle
  2
Hidden
 70
     6
 71
     1
 72
     2
 73
     2
 90
        0
 40
0.6
 41
30.0
 62
     5
 63
     7
421
 16777215
 74
     2
 91
        2
 64
     7
 65
   257
 75
     2
175
     1
 42
40.0
 92
        0
 66
   257
 43
1.0
 76
     1
 77
     6
 78
     2
 67
     7
 79
     3
170
     0
171
     0
290
     0
174
     0
 93
        1
 44
0.0
173
     0
291
     0
 45
0.0
1001
ACAD
1000
AcDbSavedByObjectVersion
1070
     0
  0
VISUALSTYLE
  5
3B
102
{ACAD_REACTORS
330
2A
102
}
102
{ACAD_XDICTIONARY
360
14E
102
}
330
2A
100
AcDbVisualStyle
  2
JitterOff
 70
    20
 71
     2
 72
     2
 73
     0
 90
        0
 40
0.6
 41
30.0
 62
     5
 63
     7
421
 16777215
 74
     1
 91
        4
 64
     7
 65
   257
 75
     1
175
     1
 42
1.0
 92
       10
 66
     7
 43
1.0
 76
     1
 77
     6
 78
     2
 67
     7
 79
     5
170
     0
171
     0
290
     0
174
     0
 93
        1
 44
0.0
173
     0
291
     1
 45
0.0
1001
ACAD
1000
AcDbSavedByObjectVersion
1070
     0
  0
VISUALSTYLE
  5
38
102
{ACAD_REACTORS
330
2A
102
}
102
{ACAD_XDICTIONARY
360
148
102
}
330
2A
100
AcDbVisualStyle
  2
Linepattern
 70
    14
 71
     2
 72
     2
 73
     0
 90
        0
 40
0.6
 41
30.0
 62
     5
 63
     7
421
 16777215
 74
     1
 91
        4
 64
     7
 65
   257
 75
     7
175
     7
 42
1.0
 92
        8
 66
     7
 43
1.0
 76
     1
 77
     6
 78
     2
 67
     7
 79
     5
170
     0
171
     0
290
     0
174
     0
 93
        1
 44
0.0
173
     0
291
     1
 45
0.0
1001
ACAD
1000
AcDbSavedByObjectVersion
1070
     0
  0
VISUALSTYLE
  5
3C
102
{ACAD_REACTORS
330
2A
102
}
102
{ACAD_XDICTIONARY
360
150
102
}
330
2A
100
AcDbVisualStyle
  2
OverhangOff
 70
    21
 71
     2
 72
     2
 73
     0
 90
        0
 40
0.6
 41
30.0
 62
     5
 63
     7
421
 16777215
 74
     1
 91
        4
 64
     7
 65
   257
 75
     1
175
     1
 42
1.0
 92
        9
 66
     7
 43
1.0
 76
     1
 77
     6
 78
     2
 67
     7
 79
     5
170
     0
171
     0
290
     0
174
     0
 93
        1
 44
0.0
173
     0
291
     1
 45
0.0
1001
ACAD
1000
AcDbSavedByObjectVersion
1070
     0
  0
VISUALSTYLE
  5
33
102
{ACAD_REACTORS
330
2A
102
}
102
{ACAD_XDICTIONARY
360
13E
102
}
330
2A
100
AcDbVisualStyle
  2
Realistic
 70
     8
 71
     2
 72
     3
 73
     0
 90
        2
 40
0.6
 41
30.0
 62
     5
 63
     7
421
 16777215
 74
     0
 91
        0
 64
     7
 65
   257
 75
     1
175
     1
 42
1.0
 92
        8
 66
   257
 43
1.0
 76
     1
 77
     6
 78
     2
 67
     7
 79
     3
170
     0
171
     0
290
     0
174
     0
 93
       13
 44
0.0
173
     0
291
     0
 45
0.0
1001
ACAD
1000
AcDbSavedByObjectVersion
1070
     0
  0
VISUALSTYLE
  5
42
102
{ACAD_REACTORS
330
2A
102
}
102
{ACAD_XDICTIONARY
360
15C
102
}
330
2A
100
AcDbVisualStyle
  2
Shaded
 70
    27
 71
     2
 72
     2
 73
     1
 90
        2
 40
0.6
 41
30.0
 62
     5
 63
     7
421
 16777215
 74
     0
 91
        4
 64
     7
 65
   257
 75
     1
175
     1
 42
1.0
 92
        8
 66
   257
 43
1.0
 76
     1
 77
     6
 78
     2
 67
     8
425
  7895160
 79
     3
170
     0
171
     0
290
     0
174
     0
 93
        5
 44
0.0
173
     0
291
     0
 45
0.0
1001
ACAD
1000
AcDbSavedByObjectVersion
1070
     0
  0
VISUALSTYLE
  5
41
102
{ACAD_REACTORS
330
2A
102
}
102
{ACAD_XDICTIONARY
360
15A
102
}
330
2A
100
AcDbVisualStyle
  2
Shaded with edges
 70
    26
 71
     2
 72
     2
 73
     1
 90
        2
 40
0.6
 41
30.0
 62
     5
 63
     7
421
 16777215
 74
     1
 91
       10
 64
     7
 65
   257
 75
     2
175
     1
 42
1.0
 92
        8
 66
   257
 43
1.0
 76
     1
 77
     6
 78
     2
 67
     7
 79
     3
170
     0
171
     0
290
     0
174
     0
 93
        5
 44
0.0
173
     0
291
     0
 45
0.0
1001
ACAD
1000
AcDbSavedByObjectVersion
1070
     0
  0
VISUALSTYLE
  5
3E
102
{ACAD_REACTORS
330
2A
102
}
102
{ACAD_XDICTIONARY
360
154
102
}
330
2A
100
AcDbVisualStyle
  2
Shades of Gray
 70
    23
 71
     2
 72
     2
 73
     3
 90
        0
 40
0.6
 41
30.0
 62
     5
 63
     7
421
 16777215
 74
     2
 91
        2
 64
     7
 65
     7
 75
     1
175
     1
 42
40.0
 92
        8
 66
     7
 43
1.0
 76
     1
 77
     6
 78
     2
 67
     7
 79
     3
170
     0
171
     0
290
     0
174
     0
 93
        1
 44
0.0
173
     0
291
     0
 45
0.0
1001
ACAD
1000
AcDbSavedByObjectVersion
1070
     0
  0
VISUALSTYLE
  5
3F
102
{ACAD_REACTORS
330
2A
102
}
102
{ACAD_XDICTIONARY
360
156
102
}
330
2A
100
AcDbVisualStyle
  2
Sketchy
 70
    24
 71
     1
 72
     2
 73
     2
 90
        0
 40
0.6
 41
30.0
 62
     5
 63
     7
421
 16777215
 74
     2
 91
        2
 64
     7
 65
     7
 75
     1
175
     1
 42
40.0
 92
       11
 66
     7
 43
1.0
 76
     1
 77
     6
 78
     2
 67
     7
 79
     6
170
     0
171
     0
290
     0
174
     0
 93
        1
 44
0.0
173
     0
291
     0
 45
0.0
1001
ACAD
1000
AcDbSavedByObjectVersion
1070
     0
  0
VISUALSTYLE
  5
37
102
{ACAD_REACTORS
330
2A
102
}
102
{ACAD_XDICTIONARY
360
146
102
}
330
2A
100
AcDbVisualStyle
  2
Thicken
 70
    13
 71
     2
 72
     2
 73
     0
 90
        0
 40
0.6
 41
30.0
 62
     5
 63
     7
421
 16777215
 74
     1
 91
        4
 64
     7
 65
   257
 75
     1
175
     1
 42
1.0
 92
       12
 66
     7
 43
1.0
 76
     1
 77
     6
 78
     2
 67
     7
 79
     5
170
     0
171
     0
290
     0
174
     0
 93
        1
 44
0.0
173
     0
291
     1
 45
0.0
1001
ACAD
1000
AcDbSavedByObjectVersion
1070
     0
  0
VISUALSTYLE
  5
30
102
{ACAD_REACTORS
330
2A
102
}
102
{ACAD_XDICTIONARY
360
138
102
}
330
2A
100
AcDbVisualStyle
  2
Wireframe
 70
     5
 71
     0
 72
     2
 73
     0
 90
        0
 40
0.6
 41
30.0
 62
     5
 63
     7
421
 16777215
 74
     1
 91
        4
 64
     7
 65
   257
 75
     1
175
     1
 42
1.0
 92
        0
 66
   257
 43
1.0
 76
     1
 77
     6
 78
     2
 67
     7
 79
     3
170
     0
171
     0
290
     0
174
     0
 93
        1
 44
0.0
173
     0
291
     0
 45
0.0
1001
ACAD
1000
AcDbSavedByObjectVersion
1070
     0
  0
VISUALSTYLE
  5
40
102
{ACAD_REACTORS
330
2A
102
}
102
{ACAD_XDICTIONARY
360
158
102
}
330
2A
100
AcDbVisualStyle
  2
X-Ray
 70
    25
 71
     2
 72
     2
 73
     1
 90
        1
 40
0.5
 41
30.0
 62
     5
 63
     7
421
 16777215
 74
     1
 91
        0
 64
     7
 65
   257
 75
     1
175
     1
 42
1.0
 92
        8
 66
     7
 43
1.0
 76
     1
 77
     6
 78
     2
 67
     7
 79
     3
170
     0
171
     0
290
     0
174
     0
 93
       13
 44
0.0
173
     0
291
     0
 45
0.0
1001
ACAD
1000
AcDbSavedByObjectVersion
1070
     0
  0
DICTIONARYVAR
  5
12B
102
{ACAD_REACTORS
330
12A
102
}
330
12A
100
DictionaryVariables
280
     0
  1
1:1
  0
DICTIONARYVAR
  5
16C
102
{ACAD_REACTORS
330
12A
102
}
330
12A
100
DictionaryVariables
280
     0
  1
Standard
  0
DICTIONARYVAR
  5
16B
102
{ACAD_REACTORS
330
12A
102
}
330
12A
100
DictionaryVariables
280
     0
  1
Standard
  0
DICTIONARYVAR
  5
12C
102
{ACAD_REACTORS
330
12A
102
}
330
12A
100
DictionaryVariables
280
     0
  1
1
  0
DICTIONARYVAR
  5
12D
102
{ACAD_REACTORS
330
12A
102
}
330
12A
100
DictionaryVariables
280
     0
  1
2
  0
DICTIONARY
  5
160
330
45
100
AcDbDictionary
280
     1
281
     1
  3
ACAD_XREC_ROUNDTRIP
360
161
  0
DICTIONARY
  5
15E
330
44
100
AcDbDictionary
280
     1
281
     1
  3
ACAD_XREC_ROUNDTRIP
360
15F
  0
DICTIONARY
  5
162
330
46
100
AcDbDictionary
280
     1
281
     1
  3
ACAD_XREC_ROUNDTRIP
360
163
  0
DICTIONARY
  5
168
330
6C
100
AcDbDictionary
280
     1
281
     1
  3
ACAD_XREC_ROUNDTRIP
360
169
  0
DICTIONARY
  5
164
330
6A
100
AcDbDictionary
280
     1
281
     1
  3
ACAD_ROUNDTRIP_2008_TABLESTYLE_CELLSTYLEMAP
360
166
  3
ACAD_XREC_ROUNDTRIP
360
165
  0
DICTIONARY
  5
136
330
2F
100
AcDbDictionary
280
     1
281
     1
  3
ACAD_XREC_ROUNDTRIP
360
137
  0
DICTIONARY
  5
13C
330
32
100
AcDbDictionary
280
     1
281
     1
  3
ACAD_XREC_ROUNDTRIP
360
13D
  0
DICTIONARY
  5
144
330
36
100
AcDbDictionary
280
     1
281
     1
  3
ACAD_XREC_ROUNDTRIP
360
145
  0
DICTIONARY
  5
14C
330
3A
100
AcDbDictionary
280
     1
281
     1
  3
ACAD_XREC_ROUNDTRIP
360
14D
  0
DICTIONARY
  5
140
330
34
100
AcDbDictionary
280
     1
281
     1
  3
ACAD_XREC_ROUNDTRIP
360
141
  0
DICTIONARY
  5
142
330
35
100
AcDbDictionary
280
     1
281
     1
  3
ACAD_XREC_ROUNDTRIP
360
143
  0
DICTIONARY
  5
152
330
3D
100
AcDbDictionary
280
     1
281
     1
  3
ACAD_XREC_ROUNDTRIP
360
153
  0
DICTIONARY
  5
14A
330
39
100
AcDbDictionary
280
     1
281
     1
  3
ACAD_XREC_ROUNDTRIP
360
14B
  0
DICTIONARY
  5
12E
330
2B
100
AcDbDictionary
280
     1
281
     1
  3
ACAD_XREC_ROUNDTRIP
360
12F
  0
DICTIONARY
  5
130
330
2C
100
AcDbDictionary
280
     1
281
     1
  3
ACAD_XREC_ROUNDTRIP
360
131
  0
DICTIONARY
  5
132
330
2D
100
AcDbDictionary
280
     1
281
     1
  3
ACAD_XREC_ROUNDTRIP
360
133
  0
DICTIONARY
  5
134
330
2E
100
AcDbDictionary
280
     1
281
     1
  3
ACAD_XREC_ROUNDTRIP
360
135
  0
DICTIONARY
  5
13A
330
31
100
AcDbDictionary
280
     1
281
     1
  3
ACAD_XREC_ROUNDTRIP
360
13B
  0
DICTIONARY
  5
14E
330
3B
100
AcDbDictionary
280
     1
281
     1
  3
ACAD_XREC_ROUNDTRIP
360
14F
  0
DICTIONARY
  5
148
330
38
100
AcDbDictionary
280
     1
281
     1
  3
ACAD_XREC_ROUNDTRIP
360
149
  0
DICTIONARY
  5
150
330
3C
100
AcDbDictionary
280
     1
281
     1
  3
ACAD_XREC_ROUNDTRIP
360
151
  0
DICTIONARY
  5
13E
330
33
100
AcDbDictionary
280
     1
281
     1
  3
ACAD_XREC_ROUNDTRIP
360
13F
  0
DICTIONARY
  5
15C
330
42
100
AcDbDictionary
280
     1
281
     1
  3
ACAD_XREC_ROUNDTRIP
360
15D
  0
DICTIONARY
  5
15A
330
41
100
AcDbDictionary
280
     1
281
     1
  3
ACAD_XREC_ROUNDTRIP
360
15B
  0
DICTIONARY
  5
154
330
3E
100
AcDbDictionary
280
     1
281
     1
  3
ACAD_XREC_ROUNDTRIP
360
155
  0
DICTIONARY
  5
156
330
3F
100
AcDbDictionary
280
     1
281
     1
  3
ACAD_XREC_ROUNDTRIP
360
157
  0
DICTIONARY
  5
146
330
37
100
AcDbDictionary
280
     1
281
     1
  3
ACAD_XREC_ROUNDTRIP
360
147
  0
DICTIONARY
  5
138
330
30
100
AcDbDictionary
280
     1
281
     1
  3
ACAD_XREC_ROUNDTRIP
360
139
  0
DICTIONARY
  5
158
330
40
100
AcDbDictionary
280
     1
281
     1
  3
ACAD_XREC_ROUNDTRIP
360
159
  0
XRECORD
  5
161
102
{ACAD_REACTORS
330
160
102
}
330
160
100
AcDbXrecord
280
     1
102
MATERIAL
148
0.0
149
0.0
149
0.0
 93
        0
 94
      127
282
     0
 72
     1
 77
     1
171
     1
175
     1
179
     1
273
     0
  0
XRECORD
  5
15F
102
{ACAD_REACTORS
330
15E
102
}
330
15E
100
AcDbXrecord
280
     1
102
MATERIAL
148
0.0
149
0.0
149
0.0
 93
        0
 94
      127
282
     0
 72
     1
 77
     1
171
     1
175
     1
179
     1
273
     0
  0
XRECORD
  5
163
102
{ACAD_REACTORS
330
162
102
}
330
162
100
AcDbXrecord
280
     1
102
MATERIAL
148
0.0
149
0.0
149
0.0
 93
        0
 94
      127
282
     0
 72
     1
 77
     1
171
     1
175
     1
179
     1
273
     0
  0
XRECORD
  5
169
102
{ACAD_REACTORS
330
168
102
}
330
168
100
AcDbXrecord
280
     1
102
ACAD_ROUNDTRIP_2010_MLEADER_STYLE
  0
CELLSTYLEMAP
  5
166
102
{ACAD_REACTORS
330
164
102
}
330
164
100
AcDbCellStyleMap
 90
        3
300
CELLSTYLE
  1
TABLEFORMAT_BEGIN
 90
        5
170
     1
 91
        0
 92
    32768
 62
   257
 93
        1
300
CONTENTFORMAT
  1
CONTENTFORMAT_BEGIN
 90
        0
 91
        0
 92
        4
 93
        0
300

 40
0.0
140
1.0
 94
        5
 62
     0
340
11
144
0.25
309
CONTENTFORMAT_END
171
     1
301
MARGIN
  1
CELLMARGIN_BEGIN
 40
0.06
 40
0.06
 40
0.06
 40
0.06
 40
0.06
 40
0.06
309
CELLMARGIN_END
 94
        6
 95
        1
302
GRIDFORMAT
  1
GRIDFORMAT_BEGIN
 90
        0
 91
        1
 62
     0
 92
       -2
340
14
 93
        0
 40
0.045
309
GRIDFORMAT_END
 95
        2
302
GRIDFORMAT
  1
GRIDFORMAT_BEGIN
 90
        0
 91
        1
 62
     0
 92
       -2
340
14
 93
        0
 40
0.045
309
GRIDFORMAT_END
 95
        4
302
GRIDFORMAT
  1
GRIDFORMAT_BEGIN
 90
        0
 91
        1
 62
     0
 92
       -2
340
14
 93
        0
 40
0.045
309
GRIDFORMAT_END
 95
        8
302
GRIDFORMAT
  1
GRIDFORMAT_BEGIN
 90
        0
 91
        1
 62
     0
 92
       -2
340
14
 93
        0
 40
0.045
309
GRIDFORMAT_END
 95
       16
302
GRIDFORMAT
  1
GRIDFORMAT_BEGIN
 90
        0
 91
        1
 62
     0
 92
       -2
340
14
 93
        0
 40
0.045
309
GRIDFORMAT_END
 95
       32
302
GRIDFORMAT
  1
GRIDFORMAT_BEGIN
 90
        0
 91
        1
 62
     0
 92
       -2
340
14
 93
        0
 40
0.045
309
GRIDFORMAT_END
309
TABLEFORMAT_END
  1
CELLSTYLE_BEGIN
 90
        1
 91
        1
300
_TITLE
309
CELLSTYLE_END
300
CELLSTYLE
  1
TABLEFORMAT_BEGIN
 90
        5
170
     1
 91
        0
 92
        0
 62
   257
 93
        1
300
CONTENTFORMAT
  1
CONTENTFORMAT_BEGIN
 90
        0
 91
        0
 92
        4
 93
        0
300

 40
0.0
140
1.0
 94
        5
 62
     0
340
11
144
0.18
309
CONTENTFORMAT_END
171
     1
301
MARGIN
  1
CELLMARGIN_BEGIN
 40
0.06
 40
0.06
 40
0.06
 40
0.06
 40
0.06
 40
0.06
309
CELLMARGIN_END
 94
        6
 95
        1
302
GRIDFORMAT
  1
GRIDFORMAT_BEGIN
 90
        0
 91
        1
 62
     0
 92
       -2
340
14
 93
        0
 40
0.045
309
GRIDFORMAT_END
 95
        2
302
GRIDFORMAT
  1
GRIDFORMAT_BEGIN
 90
        0
 91
        1
 62
     0
 92
       -2
340
14
 93
        0
 40
0.045
309
GRIDFORMAT_END
 95
        4
302
GRIDFORMAT
  1
GRIDFORMAT_BEGIN
 90
        0
 91
        1
 62
     0
 92
       -2
340
14
 93
        0
 40
0.045
309
GRIDFORMAT_END
 95
        8
302
GRIDFORMAT
  1
GRIDFORMAT_BEGIN
 90
        0
 91
        1
 62
     0
 92
       -2
340
14
 93
        0
 40
0.045
309
GRIDFORMAT_END
 95
       16
302
GRIDFORMAT
  1
GRIDFORMAT_BEGIN
 90
        0
 91
        1
 62
     0
 92
       -2
340
14
 93
        0
 40
0.045
309
GRIDFORMAT_END
 95
       32
302
GRIDFORMAT
  1
GRIDFORMAT_BEGIN
 90
        0
 91
        1
 62
     0
 92
       -2
340
14
 93
        0
 40
0.045
309
GRIDFORMAT_END
309
TABLEFORMAT_END
  1
CELLSTYLE_BEGIN
 90
        2
 91
        1
300
_HEADER
309
CELLSTYLE_END
300
CELLSTYLE
  1
TABLEFORMAT_BEGIN
 90
        5
170
     1
 91
        0
 92
        0
 62
   257
 93
        1
300
CONTENTFORMAT
  1
CONTENTFORMAT_BEGIN
 90
        0
 91
        0
 92
        4
 93
        0
300

 40
0.0
140
1.0
 94
        2
 62
     0
340
11
144
0.18
309
CONTENTFORMAT_END
171
     1
301
MARGIN
  1
CELLMARGIN_BEGIN
 40
0.06
 40
0.06
 40
0.06
 40
0.06
 40
0.06
 40
0.06
309
CELLMARGIN_END
 94
        6
 95
        1
302
GRIDFORMAT
  1
GRIDFORMAT_BEGIN
 90
        0
 91
        1
 62
     0
 92
       -2
340
14
 93
        0
 40
0.045
309
GRIDFORMAT_END
 95
        2
302
GRIDFORMAT
  1
GRIDFORMAT_BEGIN
 90
        0
 91
        1
 62
     0
 92
       -2
340
14
 93
        0
 40
0.045
309
GRIDFORMAT_END
 95
        4
302
GRIDFORMAT
  1
GRIDFORMAT_BEGIN
 90
        0
 91
        1
 62
     0
 92
       -2
340
14
 93
        0
 40
0.045
309
GRIDFORMAT_END
 95
        8
302
GRIDFORMAT
  1
GRIDFORMAT_BEGIN
 90
        0
 91
        1
 62
     0
 92
       -2
340
14
 93
        0
 40
0.045
309
GRIDFORMAT_END
 95
       16
302
GRIDFORMAT
  1
GRIDFORMAT_BEGIN
 90
        0
 91
        1
 62
     0
 92
       -2
340
14
 93
        0
 40
0.045
309
GRIDFORMAT_END
 95
       32
302
GRIDFORMAT
  1
GRIDFORMAT_BEGIN
 90
        0
 91
        1
 62
     0
 92
       -2
340
14
 93
        0
 40
0.045
309
GRIDFORMAT_END
309
TABLEFORMAT_END
  1
CELLSTYLE_BEGIN
 90
        3
 91
        2
300
_DATA
309
CELLSTYLE_END
  0
XRECORD
  5
165
102
{ACAD_REACTORS
330
164
102
}
330
164
100
AcDbXrecord
280
     1
102
ACAD_ROUNDTRIP_PRE2007_TABLESTYLE
 90
        4
 91
        0
  1

 92
        4
 93
        0
  2

 94
        4
 95
        0
  3

  0
XRECORD
  5
137
102
{ACAD_REACTORS
330
136
102
}
330
136
100
AcDbXrecord
280
     1
102
RTVSPropertyOp0
 70
     1
102
RTVSPropertyOp1
 70
     1
102
RTVSPropertyOp2
 70
     1
102
RTVSPropertyOp3
 70
     1
102
RTVSPropertyOp4
 70
     1
102
RTVSPropertyOp5
 70
     1
102
RTVSPropertyOp6
 70
     1
102
RTVSPropertyOp7
 70
     1
102
RTVSPropertyOp8
 70
     1
102
RTVSPropertyOp9
 70
     1
102
RTVSPropertyOp10
 70
     1
102
RTVSPropertyOp11
 70
     1
102
RTVSPropertyOp12
 70
     1
102
RTVSPropertyOp13
 70
     1
102
RTVSPropertyOp14
 70
     1
102
RTVSPropertyOp15
 70
     1
102
RTVSPropertyOp16
 70
     1
102
RTVSPropertyOp17
 70
     1
102
RTVSPropertyOp18
 70
     1
102
RTVSPropertyOp19
 70
     1
102
RTVSPropertyOp20
 70
     1
102
RTVSPropertyOp21
 70
     1
102
RTVSPropertyOp22
 70
     1
102
RTVSPropertyOp23
 70
     1
102
RTVSPropertyOp24
 70
     1
102
RTVSPropertyOp25
 70
     1
102
RTVSPropertyOp26
 70
     1
102
RTVSPropertyOp27
 70
     1
102
RTVSPropertyOp28
 70
     1
102
RTVSPropertyOp29
 70
     1
102
RTVSPropertyOp30
 70
     1
102
RTVSPropertyOp31
 70
     1
102
RTVSPropertyOp32
 70
     1
102
RTVSPropertyOp33
 70
     1
102
RTVSPropertyOp34
 70
     1
102
RTVSPropertyOp35
 70
     1
102
RTVSPropertyOp36
 70
     1
102
RTVSPropertyOp37
 70
     1
102
RTVSPropertyOp38
 70
     1
102
RTVSPropertyOp39
 70
     1
102
RTVSPropertyOp40
 70
     1
102
RTVSPropertyOp41
 70
     1
102
RTVSPropertyOp42
 70
     1
102
RTVSPropertyOp43
 70
     1
102
RTVSPropertyOp44
 70
     1
102
RTVSPropertyOp45
 70
     1
102
RTVSPropertyOp46
 70
     1
102
RTVSPropertyOp47
 70
     1
102
RTVSPropertyOp48
 70
     1
102
RTVSPropertyOp49
 70
     1
102
RTVSPropertyOp50
 70
     1
102
RTVSPropertyOp51
 70
     0
102
RTVSPropertyOp52
 70
     0
102
RTVSPropertyOp53
 70
     1
102
RTVSPropertyOp54
 70
     1
102
RTVSPropertyOp55
 70
     1
102
RTVSPropertyOp56
 70
     1
102
RTVSPropertyOp57
 70
     1
102
RTVSPost2010Prop28
280
     1
102
RTVSPost2010PropOp28
 70
     1
102
RTVSPost2010Prop29
280
     1
102
RTVSPost2010PropOp29
 70
     1
102
RTVSPost2010Prop30
280
     0
102
RTVSPost2010PropOp30
 70
     1
102
RTVSPost2010Prop31
280
     0
102
RTVSPost2010PropOp31
 70
     1
102
RTVSPost2010Prop32
280
     0
102
RTVSPost2010PropOp32
 70
     1
102
RTVSPost2010Prop33
280
     0
102
RTVSPost2010PropOp33
 70
     1
102
RTVSPost2010Prop34
280
     0
102
RTVSPost2010PropOp34
 70
     1
102
RTVSPost2010Prop35
280
     0
102
RTVSPost2010PropOp35
 70
     1
102
RTVSPost2010Prop36
280
     0
102
RTVSPost2010PropOp36
 70
     1
102
RTVSPost2010Prop37
 90
       50
102
RTVSPost2010PropOp37
 70
     1
102
RTVSPost2010Prop38
140
0.0
102
RTVSPost2010PropOp38
 70
     1
102
RTVSPost2010Prop39
140
1.0
102
RTVSPost2010PropOp39
 70
     1
102
RTVSPost2010Prop40
 90
        0
102
RTVSPost2010PropOp40
 70
     1
102
RTVSPost2010Prop41ColorIndex
 90
       18
102
RTVSPost2010Prop41ColorRGB
 90
        0
102
RTVSPost2010PropOp41
 70
     1
102
RTVSPost2010Prop42
 90
       50
102
RTVSPost2010PropOp42
 70
     1
102
RTVSPost2010Prop43
 90
        3
102
RTVSPost2010PropOp43
 70
     1
102
RTVSPost2010Prop44ColorIndex
 90
        5
102
RTVSPost2010Prop44ColorRGB
 90
      255
102
RTVSPost2010PropOp44
 70
     1
102
RTVSPost2010Prop45
280
     0
102
RTVSPost2010PropOp45
 70
     1
102
RTVSPost2010Prop46
 90
       50
102
RTVSPost2010PropOp46
 70
     1
102
RTVSPost2010Prop47
 90
       50
102
RTVSPost2010PropOp47
 70
     1
102
RTVSPost2010Prop48
 90
       50
102
RTVSPost2010PropOp48
 70
     1
102
RTVSPost2010Prop49
280
     0
102
RTVSPost2010PropOp49
 70
     1
102
RTVSPost2010Prop50
 90
       50
102
RTVSPost2010PropOp50
 70
     1
102
RTVSPost2010Prop51ColorIndex
 90
      256
102
RTVSPost2010Prop51ColorRGB
 90
-16777216
102
RTVSPost2010PropOp51
 70
     0
102
RTVSPost2010Prop52
140
1.0
102
RTVSPost2010PropOp52
 70
     0
102
RTVSPost2010Prop53
 90
        2
102
RTVSPost2010PropOp53
 70
     1
102
RTVSPost2010Prop54
  1
strokes_ogs.tif
102
RTVSPost2010PropOp54
 70
     1
102
RTVSPost2010Prop55
280
     0
102
RTVSPost2010PropOp55
 70
     1
102
RTVSPost2010Prop56
140
1.0
102
RTVSPost2010PropOp56
 70
     1
102
RTVSPost2010Prop57
140
1.0
102
RTVSPost2010PropOp57
 70
     1
  0
XRECORD
  5
13D
102
{ACAD_REACTORS
330
13C
102
}
330
13C
100
AcDbXrecord
280
     1
102
RTVSPropertyOp0
 70
     1
102
RTVSPropertyOp1
 70
     1
102
RTVSPropertyOp2
 70
     1
102
RTVSPropertyOp3
 70
     1
102
RTVSPropertyOp4
 70
     1
102
RTVSPropertyOp5
 70
     1
102
RTVSPropertyOp6
 70
     1
102
RTVSPropertyOp7
 70
     1
102
RTVSPropertyOp8
 70
     1
102
RTVSPropertyOp9
 70
     1
102
RTVSPropertyOp10
 70
     1
102
RTVSPropertyOp11
 70
     1
102
RTVSPropertyOp12
 70
     1
102
RTVSPropertyOp13
 70
     1
102
RTVSPropertyOp14
 70
     1
102
RTVSPropertyOp15
 70
     1
102
RTVSPropertyOp16
 70
     1
102
RTVSPropertyOp17
 70
     1
102
RTVSPropertyOp18
 70
     1
102
RTVSPropertyOp19
 70
     1
102
RTVSPropertyOp20
 70
     1
102
RTVSPropertyOp21
 70
     1
102
RTVSPropertyOp22
 70
     1
102
RTVSPropertyOp23
 70
     1
102
RTVSPropertyOp24
 70
     1
102
RTVSPropertyOp25
 70
     1
102
RTVSPropertyOp26
 70
     1
102
RTVSPropertyOp27
 70
     1
102
RTVSPropertyOp28
 70
     1
102
RTVSPropertyOp29
 70
     1
102
RTVSPropertyOp30
 70
     1
102
RTVSPropertyOp31
 70
     1
102
RTVSPropertyOp32
 70
     1
102
RTVSPropertyOp33
 70
     1
102
RTVSPropertyOp34
 70
     1
102
RTVSPropertyOp35
 70
     1
102
RTVSPropertyOp36
 70
     1
102
RTVSPropertyOp37
 70
     1
102
RTVSPropertyOp38
 70
     1
102
RTVSPropertyOp39
 70
     1
102
RTVSPropertyOp40
 70
     1
102
RTVSPropertyOp41
 70
     1
102
RTVSPropertyOp42
 70
     1
102
RTVSPropertyOp43
 70
     1
102
RTVSPropertyOp44
 70
     1
102
RTVSPropertyOp45
 70
     1
102
RTVSPropertyOp46
 70
     1
102
RTVSPropertyOp47
 70
     1
102
RTVSPropertyOp48
 70
     1
102
RTVSPropertyOp49
 70
     1
102
RTVSPropertyOp50
 70
     1
102
RTVSPropertyOp51
 70
     0
102
RTVSPropertyOp52
 70
     0
102
RTVSPropertyOp53
 70
     1
102
RTVSPropertyOp54
 70
     1
102
RTVSPropertyOp55
 70
     1
102
RTVSPropertyOp56
 70
     1
102
RTVSPropertyOp57
 70
     1
102
RTVSPost2010Prop28
280
     0
102
RTVSPost2010PropOp28
 70
     1
102
RTVSPost2010Prop29
280
     1
102
RTVSPost2010PropOp29
 70
     1
102
RTVSPost2010Prop30
280
     1
102
RTVSPost2010PropOp30
 70
     1
102
RTVSPost2010Prop31
280
     0
102
RTVSPost2010PropOp31
 70
     1
102
RTVSPost2010Prop32
280
     0
102
RTVSPost2010PropOp32
 70
     1
102
RTVSPost2010Prop33
280
     0
102
RTVSPost2010PropOp33
 70
     1
102
RTVSPost2010Prop34
280
     0
102
RTVSPost2010PropOp34
 70
     1
102
RTVSPost2010Prop35
280
     0
102
RTVSPost2010PropOp35
 70
     1
102
RTVSPost2010Prop36
280
     0
102
RTVSPost2010PropOp36
 70
     1
102
RTVSPost2010Prop37
 90
       50
102
RTVSPost2010PropOp37
 70
     1
102
RTVSPost2010Prop38
140
0.0
102
RTVSPost2010PropOp38
 70
     1
102
RTVSPost2010Prop39
140
1.0
102
RTVSPost2010PropOp39
 70
     1
102
RTVSPost2010Prop40
 90
        0
102
RTVSPost2010PropOp40
 70
     1
102
RTVSPost2010Prop41ColorIndex
 90
       18
102
RTVSPost2010Prop41ColorRGB
 90
        0
102
RTVSPost2010PropOp41
 70
     1
102
RTVSPost2010Prop42
 90
       50
102
RTVSPost2010PropOp42
 70
     1
102
RTVSPost2010Prop43
 90
        3
102
RTVSPost2010PropOp43
 70
     1
102
RTVSPost2010Prop44ColorIndex
 90
        5
102
RTVSPost2010Prop44ColorRGB
 90
      255
102
RTVSPost2010PropOp44
 70
     1
102
RTVSPost2010Prop45
280
     0
102
RTVSPost2010PropOp45
 70
     1
102
RTVSPost2010Prop46
 90
       50
102
RTVSPost2010PropOp46
 70
     1
102
RTVSPost2010Prop47
 90
       50
102
RTVSPost2010PropOp47
 70
     1
102
RTVSPost2010Prop48
 90
       50
102
RTVSPost2010PropOp48
 70
     1
102
RTVSPost2010Prop49
280
     0
102
RTVSPost2010PropOp49
 70
     1
102
RTVSPost2010Prop50
 90
       50
102
RTVSPost2010PropOp50
 70
     1
102
RTVSPost2010Prop51ColorIndex
 90
      256
102
RTVSPost2010Prop51ColorRGB
 90
-16777216
102
RTVSPost2010PropOp51
 70
     0
102
RTVSPost2010Prop52
140
1.0
102
RTVSPost2010PropOp52
 70
     0
102
RTVSPost2010Prop53
 90
        2
102
RTVSPost2010PropOp53
 70
     1
102
RTVSPost2010Prop54
  1
strokes_ogs.tif
102
RTVSPost2010PropOp54
 70
     1
102
RTVSPost2010Prop55
280
     0
102
RTVSPost2010PropOp55
 70
     1
102
RTVSPost2010Prop56
140
1.0
102
RTVSPost2010PropOp56
 70
     1
102
RTVSPost2010Prop57
140
1.0
102
RTVSPost2010PropOp57
 70
     1
  0
XRECORD
  5
145
102
{ACAD_REACTORS
330
144
102
}
330
144
100
AcDbXrecord
280
     1
102
RTVSPropertyOp0
 70
     1
102
RTVSPropertyOp1
 70
     1
102
RTVSPropertyOp2
 70
     1
102
RTVSPropertyOp3
 70
     1
102
RTVSPropertyOp4
 70
     1
102
RTVSPropertyOp5
 70
     1
102
RTVSPropertyOp6
 70
     1
102
RTVSPropertyOp7
 70
     1
102
RTVSPropertyOp8
 70
     1
102
RTVSPropertyOp9
 70
     1
102
RTVSPropertyOp10
 70
     1
102
RTVSPropertyOp11
 70
     1
102
RTVSPropertyOp12
 70
     1
102
RTVSPropertyOp13
 70
     1
102
RTVSPropertyOp14
 70
     1
102
RTVSPropertyOp15
 70
     1
102
RTVSPropertyOp16
 70
     1
102
RTVSPropertyOp17
 70
     1
102
RTVSPropertyOp18
 70
     1
102
RTVSPropertyOp19
 70
     1
102
RTVSPropertyOp20
 70
     1
102
RTVSPropertyOp21
 70
     1
102
RTVSPropertyOp22
 70
     1
102
RTVSPropertyOp23
 70
     1
102
RTVSPropertyOp24
 70
     1
102
RTVSPropertyOp25
 70
     1
102
RTVSPropertyOp26
 70
     1
102
RTVSPropertyOp27
 70
     1
102
RTVSPropertyOp28
 70
     1
102
RTVSPropertyOp29
 70
     1
102
RTVSPropertyOp30
 70
     1
102
RTVSPropertyOp31
 70
     1
102
RTVSPropertyOp32
 70
     1
102
RTVSPropertyOp33
 70
     1
102
RTVSPropertyOp34
 70
     1
102
RTVSPropertyOp35
 70
     1
102
RTVSPropertyOp36
 70
     1
102
RTVSPropertyOp37
 70
     1
102
RTVSPropertyOp38
 70
     1
102
RTVSPropertyOp39
 70
     1
102
RTVSPropertyOp40
 70
     1
102
RTVSPropertyOp41
 70
     1
102
RTVSPropertyOp42
 70
     1
102
RTVSPropertyOp43
 70
     1
102
RTVSPropertyOp44
 70
     1
102
RTVSPropertyOp45
 70
     1
102
RTVSPropertyOp46
 70
     1
102
RTVSPropertyOp47
 70
     1
102
RTVSPropertyOp48
 70
     1
102
RTVSPropertyOp49
 70
     1
102
RTVSPropertyOp50
 70
     1
102
RTVSPropertyOp51
 70
     0
102
RTVSPropertyOp52
 70
     0
102
RTVSPropertyOp53
 70
     1
102
RTVSPropertyOp54
 70
     1
102
RTVSPropertyOp55
 70
     1
102
RTVSPropertyOp56
 70
     1
102
RTVSPropertyOp57
 70
     1
102
RTVSPost2010Prop28
280
     0
102
RTVSPost2010PropOp28
 70
     1
102
RTVSPost2010Prop29
280
     1
102
RTVSPost2010PropOp29
 70
     1
102
RTVSPost2010Prop30
280
     1
102
RTVSPost2010PropOp30
 70
     1
102
RTVSPost2010Prop31
280
     0
102
RTVSPost2010PropOp31
 70
     1
102
RTVSPost2010Prop32
280
     0
102
RTVSPost2010PropOp32
 70
     1
102
RTVSPost2010Prop33
280
     0
102
RTVSPost2010PropOp33
 70
     1
102
RTVSPost2010Prop34
280
     0
102
RTVSPost2010PropOp34
 70
     1
102
RTVSPost2010Prop35
280
     0
102
RTVSPost2010PropOp35
 70
     1
102
RTVSPost2010Prop36
280
     0
102
RTVSPost2010PropOp36
 70
     1
102
RTVSPost2010Prop37
 90
       50
102
RTVSPost2010PropOp37
 70
     1
102
RTVSPost2010Prop38
140
0.0
102
RTVSPost2010PropOp38
 70
     1
102
RTVSPost2010Prop39
140
1.0
102
RTVSPost2010PropOp39
 70
     1
102
RTVSPost2010Prop40
 90
        0
102
RTVSPost2010PropOp40
 70
     1
102
RTVSPost2010Prop41ColorIndex
 90
       18
102
RTVSPost2010Prop41ColorRGB
 90
        0
102
RTVSPost2010PropOp41
 70
     1
102
RTVSPost2010Prop42
 90
       50
102
RTVSPost2010PropOp42
 70
     1
102
RTVSPost2010Prop43
 90
        3
102
RTVSPost2010PropOp43
 70
     1
102
RTVSPost2010Prop44ColorIndex
 90
        5
102
RTVSPost2010Prop44ColorRGB
 90
      255
102
RTVSPost2010PropOp44
 70
     1
102
RTVSPost2010Prop45
280
     0
102
RTVSPost2010PropOp45
 70
     1
102
RTVSPost2010Prop46
 90
       50
102
RTVSPost2010PropOp46
 70
     1
102
RTVSPost2010Prop47
 90
       50
102
RTVSPost2010PropOp47
 70
     1
102
RTVSPost2010Prop48
 90
       50
102
RTVSPost2010PropOp48
 70
     1
102
RTVSPost2010Prop49
280
     0
102
RTVSPost2010PropOp49
 70
     1
102
RTVSPost2010Prop50
 90
       50
102
RTVSPost2010PropOp50
 70
     1
102
RTVSPost2010Prop51ColorIndex
 90
      256
102
RTVSPost2010Prop51ColorRGB
 90
-16777216
102
RTVSPost2010PropOp51
 70
     0
102
RTVSPost2010Prop52
140
1.0
102
RTVSPost2010PropOp52
 70
     0
102
RTVSPost2010Prop53
 90
        2
102
RTVSPost2010PropOp53
 70
     1
102
RTVSPost2010Prop54
  1
strokes_ogs.tif
102
RTVSPost2010PropOp54
 70
     1
102
RTVSPost2010Prop55
280
     0
102
RTVSPost2010PropOp55
 70
     1
102
RTVSPost2010Prop56
140
1.0
102
RTVSPost2010PropOp56
 70
     1
102
RTVSPost2010Prop57
140
1.0
102
RTVSPost2010PropOp57
 70
     1
  0
XRECORD
  5
14D
102
{ACAD_REACTORS
330
14C
102
}
330
14C
100
AcDbXrecord
280
     1
102
RTVSPropertyOp0
 70
     1
102
RTVSPropertyOp1
 70
     1
102
RTVSPropertyOp2
 70
     1
102
RTVSPropertyOp3
 70
     1
102
RTVSPropertyOp4
 70
     1
102
RTVSPropertyOp5
 70
     1
102
RTVSPropertyOp6
 70
     1
102
RTVSPropertyOp7
 70
     1
102
RTVSPropertyOp8
 70
     1
102
RTVSPropertyOp9
 70
     1
102
RTVSPropertyOp10
 70
     1
102
RTVSPropertyOp11
 70
     1
102
RTVSPropertyOp12
 70
     1
102
RTVSPropertyOp13
 70
     1
102
RTVSPropertyOp14
 70
     1
102
RTVSPropertyOp15
 70
     1
102
RTVSPropertyOp16
 70
     1
102
RTVSPropertyOp17
 70
     1
102
RTVSPropertyOp18
 70
     1
102
RTVSPropertyOp19
 70
     1
102
RTVSPropertyOp20
 70
     1
102
RTVSPropertyOp21
 70
     1
102
RTVSPropertyOp22
 70
     1
102
RTVSPropertyOp23
 70
     1
102
RTVSPropertyOp24
 70
     1
102
RTVSPropertyOp25
 70
     1
102
RTVSPropertyOp26
 70
     1
102
RTVSPropertyOp27
 70
     1
102
RTVSPropertyOp28
 70
     1
102
RTVSPropertyOp29
 70
     1
102
RTVSPropertyOp30
 70
     1
102
RTVSPropertyOp31
 70
     1
102
RTVSPropertyOp32
 70
     1
102
RTVSPropertyOp33
 70
     1
102
RTVSPropertyOp34
 70
     1
102
RTVSPropertyOp35
 70
     1
102
RTVSPropertyOp36
 70
     1
102
RTVSPropertyOp37
 70
     1
102
RTVSPropertyOp38
 70
     1
102
RTVSPropertyOp39
 70
     1
102
RTVSPropertyOp40
 70
     1
102
RTVSPropertyOp41
 70
     1
102
RTVSPropertyOp42
 70
     1
102
RTVSPropertyOp43
 70
     1
102
RTVSPropertyOp44
 70
     1
102
RTVSPropertyOp45
 70
     1
102
RTVSPropertyOp46
 70
     1
102
RTVSPropertyOp47
 70
     1
102
RTVSPropertyOp48
 70
     1
102
RTVSPropertyOp49
 70
     1
102
RTVSPropertyOp50
 70
     1
102
RTVSPropertyOp51
 70
     0
102
RTVSPropertyOp52
 70
     0
102
RTVSPropertyOp53
 70
     1
102
RTVSPropertyOp54
 70
     1
102
RTVSPropertyOp55
 70
     1
102
RTVSPropertyOp56
 70
     1
102
RTVSPropertyOp57
 70
     1
102
RTVSPost2010Prop28
280
     0
102
RTVSPost2010PropOp28
 70
     1
102
RTVSPost2010Prop29
280
     1
102
RTVSPost2010PropOp29
 70
     1
102
RTVSPost2010Prop30
280
     1
102
RTVSPost2010PropOp30
 70
     1
102
RTVSPost2010Prop31
280
     0
102
RTVSPost2010PropOp31
 70
     1
102
RTVSPost2010Prop32
280
     0
102
RTVSPost2010PropOp32
 70
     1
102
RTVSPost2010Prop33
280
     0
102
RTVSPost2010PropOp33
 70
     1
102
RTVSPost2010Prop34
280
     0
102
RTVSPost2010PropOp34
 70
     1
102
RTVSPost2010Prop35
280
     0
102
RTVSPost2010PropOp35
 70
     1
102
RTVSPost2010Prop36
280
     0
102
RTVSPost2010PropOp36
 70
     1
102
RTVSPost2010Prop37
 90
       50
102
RTVSPost2010PropOp37
 70
     1
102
RTVSPost2010Prop38
140
0.0
102
RTVSPost2010PropOp38
 70
     1
102
RTVSPost2010Prop39
140
1.0
102
RTVSPost2010PropOp39
 70
     1
102
RTVSPost2010Prop40
 90
        0
102
RTVSPost2010PropOp40
 70
     1
102
RTVSPost2010Prop41ColorIndex
 90
       18
102
RTVSPost2010Prop41ColorRGB
 90
        0
102
RTVSPost2010PropOp41
 70
     1
102
RTVSPost2010Prop42
 90
       50
102
RTVSPost2010PropOp42
 70
     1
102
RTVSPost2010Prop43
 90
        3
102
RTVSPost2010PropOp43
 70
     1
102
RTVSPost2010Prop44ColorIndex
 90
        5
102
RTVSPost2010Prop44ColorRGB
 90
      255
102
RTVSPost2010PropOp44
 70
     1
102
RTVSPost2010Prop45
280
     0
102
RTVSPost2010PropOp45
 70
     1
102
RTVSPost2010Prop46
 90
       50
102
RTVSPost2010PropOp46
 70
     1
102
RTVSPost2010Prop47
 90
       50
102
RTVSPost2010PropOp47
 70
     1
102
RTVSPost2010Prop48
 90
       50
102
RTVSPost2010PropOp48
 70
     1
102
RTVSPost2010Prop49
280
     0
102
RTVSPost2010PropOp49
 70
     1
102
RTVSPost2010Prop50
 90
       50
102
RTVSPost2010PropOp50
 70
     1
102
RTVSPost2010Prop51ColorIndex
 90
      256
102
RTVSPost2010Prop51ColorRGB
 90
-16777216
102
RTVSPost2010PropOp51
 70
     0
102
RTVSPost2010Prop52
140
1.0
102
RTVSPost2010PropOp52
 70
     0
102
RTVSPost2010Prop53
 90
        2
102
RTVSPost2010PropOp53
 70
     1
102
RTVSPost2010Prop54
  1
strokes_ogs.tif
102
RTVSPost2010PropOp54
 70
     1
102
RTVSPost2010Prop55
280
     0
102
RTVSPost2010PropOp55
 70
     1
102
RTVSPost2010Prop56
140
1.0
102
RTVSPost2010PropOp56
 70
     1
102
RTVSPost2010Prop57
140
1.0
102
RTVSPost2010PropOp57
 70
     1
  0
XRECORD
  5
141
102
{ACAD_REACTORS
330
140
102
}
330
140
100
AcDbXrecord
280
     1
102
RTVSPropertyOp0
 70
     1
102
RTVSPropertyOp1
 70
     1
102
RTVSPropertyOp2
 70
     1
102
RTVSPropertyOp3
 70
     1
102
RTVSPropertyOp4
 70
     1
102
RTVSPropertyOp5
 70
     1
102
RTVSPropertyOp6
 70
     1
102
RTVSPropertyOp7
 70
     1
102
RTVSPropertyOp8
 70
     1
102
RTVSPropertyOp9
 70
     1
102
RTVSPropertyOp10
 70
     1
102
RTVSPropertyOp11
 70
     1
102
RTVSPropertyOp12
 70
     1
102
RTVSPropertyOp13
 70
     1
102
RTVSPropertyOp14
 70
     1
102
RTVSPropertyOp15
 70
     1
102
RTVSPropertyOp16
 70
     1
102
RTVSPropertyOp17
 70
     1
102
RTVSPropertyOp18
 70
     1
102
RTVSPropertyOp19
 70
     1
102
RTVSPropertyOp20
 70
     1
102
RTVSPropertyOp21
 70
     1
102
RTVSPropertyOp22
 70
     1
102
RTVSPropertyOp23
 70
     1
102
RTVSPropertyOp24
 70
     1
102
RTVSPropertyOp25
 70
     1
102
RTVSPropertyOp26
 70
     1
102
RTVSPropertyOp27
 70
     1
102
RTVSPropertyOp28
 70
     1
102
RTVSPropertyOp29
 70
     1
102
RTVSPropertyOp30
 70
     1
102
RTVSPropertyOp31
 70
     1
102
RTVSPropertyOp32
 70
     1
102
RTVSPropertyOp33
 70
     1
102
RTVSPropertyOp34
 70
     1
102
RTVSPropertyOp35
 70
     1
102
RTVSPropertyOp36
 70
     1
102
RTVSPropertyOp37
 70
     1
102
RTVSPropertyOp38
 70
     1
102
RTVSPropertyOp39
 70
     1
102
RTVSPropertyOp40
 70
     1
102
RTVSPropertyOp41
 70
     1
102
RTVSPropertyOp42
 70
     1
102
RTVSPropertyOp43
 70
     1
102
RTVSPropertyOp44
 70
     1
102
RTVSPropertyOp45
 70
     1
102
RTVSPropertyOp46
 70
     1
102
RTVSPropertyOp47
 70
     1
102
RTVSPropertyOp48
 70
     1
102
RTVSPropertyOp49
 70
     1
102
RTVSPropertyOp50
 70
     1
102
RTVSPropertyOp51
 70
     0
102
RTVSPropertyOp52
 70
     0
102
RTVSPropertyOp53
 70
     1
102
RTVSPropertyOp54
 70
     1
102
RTVSPropertyOp55
 70
     1
102
RTVSPropertyOp56
 70
     1
102
RTVSPropertyOp57
 70
     1
102
RTVSPost2010Prop28
280
     0
102
RTVSPost2010PropOp28
 70
     1
102
RTVSPost2010Prop29
280
     1
102
RTVSPost2010PropOp29
 70
     1
102
RTVSPost2010Prop30
280
     1
102
RTVSPost2010PropOp30
 70
     1
102
RTVSPost2010Prop31
280
     0
102
RTVSPost2010PropOp31
 70
     1
102
RTVSPost2010Prop32
280
     0
102
RTVSPost2010PropOp32
 70
     1
102
RTVSPost2010Prop33
280
     0
102
RTVSPost2010PropOp33
 70
     1
102
RTVSPost2010Prop34
280
     0
102
RTVSPost2010PropOp34
 70
     1
102
RTVSPost2010Prop35
280
     0
102
RTVSPost2010PropOp35
 70
     1
102
RTVSPost2010Prop36
280
     0
102
RTVSPost2010PropOp36
 70
     1
102
RTVSPost2010Prop37
 90
       50
102
RTVSPost2010PropOp37
 70
     1
102
RTVSPost2010Prop38
140
0.0
102
RTVSPost2010PropOp38
 70
     1
102
RTVSPost2010Prop39
140
1.0
102
RTVSPost2010PropOp39
 70
     1
102
RTVSPost2010Prop40
 90
        0
102
RTVSPost2010PropOp40
 70
     1
102
RTVSPost2010Prop41ColorIndex
 90
       18
102
RTVSPost2010Prop41ColorRGB
 90
        0
102
RTVSPost2010PropOp41
 70
     1
102
RTVSPost2010Prop42
 90
       50
102
RTVSPost2010PropOp42
 70
     1
102
RTVSPost2010Prop43
 90
        3
102
RTVSPost2010PropOp43
 70
     1
102
RTVSPost2010Prop44ColorIndex
 90
        5
102
RTVSPost2010Prop44ColorRGB
 90
      255
102
RTVSPost2010PropOp44
 70
     1
102
RTVSPost2010Prop45
280
     0
102
RTVSPost2010PropOp45
 70
     1
102
RTVSPost2010Prop46
 90
       50
102
RTVSPost2010PropOp46
 70
     1
102
RTVSPost2010Prop47
 90
       50
102
RTVSPost2010PropOp47
 70
     1
102
RTVSPost2010Prop48
 90
       50
102
RTVSPost2010PropOp48
 70
     1
102
RTVSPost2010Prop49
280
     0
102
RTVSPost2010PropOp49
 70
     1
102
RTVSPost2010Prop50
 90
       50
102
RTVSPost2010PropOp50
 70
     1
102
RTVSPost2010Prop51ColorIndex
 90
      256
102
RTVSPost2010Prop51ColorRGB
 90
-16777216
102
RTVSPost2010PropOp51
 70
     0
102
RTVSPost2010Prop52
140
1.0
102
RTVSPost2010PropOp52
 70
     0
102
RTVSPost2010Prop53
 90
        2
102
RTVSPost2010PropOp53
 70
     1
102
RTVSPost2010Prop54
  1
strokes_ogs.tif
102
RTVSPost2010PropOp54
 70
     1
102
RTVSPost2010Prop55
280
     0
102
RTVSPost2010PropOp55
 70
     1
102
RTVSPost2010Prop56
140
1.0
102
RTVSPost2010PropOp56
 70
     1
102
RTVSPost2010Prop57
140
1.0
102
RTVSPost2010PropOp57
 70
     1
  0
XRECORD
  5
143
102
{ACAD_REACTORS
330
142
102
}
330
142
100
AcDbXrecord
280
     1
102
RTVSPropertyOp0
 70
     1
102
RTVSPropertyOp1
 70
     1
102
RTVSPropertyOp2
 70
     1
102
RTVSPropertyOp3
 70
     1
102
RTVSPropertyOp4
 70
     1
102
RTVSPropertyOp5
 70
     1
102
RTVSPropertyOp6
 70
     1
102
RTVSPropertyOp7
 70
     1
102
RTVSPropertyOp8
 70
     1
102
RTVSPropertyOp9
 70
     1
102
RTVSPropertyOp10
 70
     1
102
RTVSPropertyOp11
 70
     1
102
RTVSPropertyOp12
 70
     1
102
RTVSPropertyOp13
 70
     1
102
RTVSPropertyOp14
 70
     1
102
RTVSPropertyOp15
 70
     1
102
RTVSPropertyOp16
 70
     1
102
RTVSPropertyOp17
 70
     1
102
RTVSPropertyOp18
 70
     1
102
RTVSPropertyOp19
 70
     1
102
RTVSPropertyOp20
 70
     1
102
RTVSPropertyOp21
 70
     1
102
RTVSPropertyOp22
 70
     1
102
RTVSPropertyOp23
 70
     1
102
RTVSPropertyOp24
 70
     1
102
RTVSPropertyOp25
 70
     1
102
RTVSPropertyOp26
 70
     1
102
RTVSPropertyOp27
 70
     1
102
RTVSPropertyOp28
 70
     1
102
RTVSPropertyOp29
 70
     1
102
RTVSPropertyOp30
 70
     1
102
RTVSPropertyOp31
 70
     1
102
RTVSPropertyOp32
 70
     1
102
RTVSPropertyOp33
 70
     1
102
RTVSPropertyOp34
 70
     1
102
RTVSPropertyOp35
 70
     1
102
RTVSPropertyOp36
 70
     1
102
RTVSPropertyOp37
 70
     1
102
RTVSPropertyOp38
 70
     1
102
RTVSPropertyOp39
 70
     1
102
RTVSPropertyOp40
 70
     1
102
RTVSPropertyOp41
 70
     1
102
RTVSPropertyOp42
 70
     1
102
RTVSPropertyOp43
 70
     1
102
RTVSPropertyOp44
 70
     1
102
RTVSPropertyOp45
 70
     1
102
RTVSPropertyOp46
 70
     1
102
RTVSPropertyOp47
 70
     1
102
RTVSPropertyOp48
 70
     1
102
RTVSPropertyOp49
 70
     1
102
RTVSPropertyOp50
 70
     1
102
RTVSPropertyOp51
 70
     0
102
RTVSPropertyOp52
 70
     0
102
RTVSPropertyOp53
 70
     1
102
RTVSPropertyOp54
 70
     1
102
RTVSPropertyOp55
 70
     1
102
RTVSPropertyOp56
 70
     1
102
RTVSPropertyOp57
 70
     1
102
RTVSPost2010Prop28
280
     0
102
RTVSPost2010PropOp28
 70
     1
102
RTVSPost2010Prop29
280
     1
102
RTVSPost2010PropOp29
 70
     1
102
RTVSPost2010Prop30
280
     1
102
RTVSPost2010PropOp30
 70
     1
102
RTVSPost2010Prop31
280
     0
102
RTVSPost2010PropOp31
 70
     1
102
RTVSPost2010Prop32
280
     0
102
RTVSPost2010PropOp32
 70
     1
102
RTVSPost2010Prop33
280
     0
102
RTVSPost2010PropOp33
 70
     1
102
RTVSPost2010Prop34
280
     0
102
RTVSPost2010PropOp34
 70
     1
102
RTVSPost2010Prop35
280
     0
102
RTVSPost2010PropOp35
 70
     1
102
RTVSPost2010Prop36
280
     0
102
RTVSPost2010PropOp36
 70
     1
102
RTVSPost2010Prop37
 90
       50
102
RTVSPost2010PropOp37
 70
     1
102
RTVSPost2010Prop38
140
0.0
102
RTVSPost2010PropOp38
 70
     1
102
RTVSPost2010Prop39
140
1.0
102
RTVSPost2010PropOp39
 70
     1
102
RTVSPost2010Prop40
 90
        0
102
RTVSPost2010PropOp40
 70
     1
102
RTVSPost2010Prop41ColorIndex
 90
       18
102
RTVSPost2010Prop41ColorRGB
 90
        0
102
RTVSPost2010PropOp41
 70
     1
102
RTVSPost2010Prop42
 90
       50
102
RTVSPost2010PropOp42
 70
     1
102
RTVSPost2010Prop43
 90
        3
102
RTVSPost2010PropOp43
 70
     1
102
RTVSPost2010Prop44ColorIndex
 90
        5
102
RTVSPost2010Prop44ColorRGB
 90
      255
102
RTVSPost2010PropOp44
 70
     1
102
RTVSPost2010Prop45
280
     0
102
RTVSPost2010PropOp45
 70
     1
102
RTVSPost2010Prop46
 90
       50
102
RTVSPost2010PropOp46
 70
     1
102
RTVSPost2010Prop47
 90
       50
102
RTVSPost2010PropOp47
 70
     1
102
RTVSPost2010Prop48
 90
       50
102
RTVSPost2010PropOp48
 70
     1
102
RTVSPost2010Prop49
280
     0
102
RTVSPost2010PropOp49
 70
     1
102
RTVSPost2010Prop50
 90
       50
102
RTVSPost2010PropOp50
 70
     1
102
RTVSPost2010Prop51ColorIndex
 90
      256
102
RTVSPost2010Prop51ColorRGB
 90
-16777216
102
RTVSPost2010PropOp51
 70
     0
102
RTVSPost2010Prop52
140
1.0
102
RTVSPost2010PropOp52
 70
     0
102
RTVSPost2010Prop53
 90
        2
102
RTVSPost2010PropOp53
 70
     1
102
RTVSPost2010Prop54
  1
strokes_ogs.tif
102
RTVSPost2010PropOp54
 70
     1
102
RTVSPost2010Prop55
280
     0
102
RTVSPost2010PropOp55
 70
     1
102
RTVSPost2010Prop56
140
1.0
102
RTVSPost2010PropOp56
 70
     1
102
RTVSPost2010Prop57
140
1.0
102
RTVSPost2010PropOp57
 70
     1
  0
XRECORD
  5
153
102
{ACAD_REACTORS
330
152
102
}
330
152
100
AcDbXrecord
280
     1
102
RTVSPropertyOp0
 70
     0
102
RTVSPropertyOp1
 70
     0
102
RTVSPropertyOp2
 70
     0
102
RTVSPropertyOp3
 70
     0
102
RTVSPropertyOp4
 70
     0
102
RTVSPropertyOp5
 70
     0
102
RTVSPropertyOp6
 70
     0
102
RTVSPropertyOp7
 70
     0
102
RTVSPropertyOp8
 70
     0
102
RTVSPropertyOp9
 70
     0
102
RTVSPropertyOp10
 70
     0
102
RTVSPropertyOp11
 70
     0
102
RTVSPropertyOp12
 70
     0
102
RTVSPropertyOp13
 70
     0
102
RTVSPropertyOp14
 70
     2
102
RTVSPropertyOp15
 70
     0
102
RTVSPropertyOp16
 70
     0
102
RTVSPropertyOp17
 70
     0
102
RTVSPropertyOp18
 70
     0
102
RTVSPropertyOp19
 70
     0
102
RTVSPropertyOp20
 70
     0
102
RTVSPropertyOp21
 70
     0
102
RTVSPropertyOp22
 70
     0
102
RTVSPropertyOp23
 70
     0
102
RTVSPropertyOp24
 70
     0
102
RTVSPropertyOp25
 70
     0
102
RTVSPropertyOp26
 70
     0
102
RTVSPropertyOp27
 70
     0
102
RTVSPropertyOp28
 70
     0
102
RTVSPropertyOp29
 70
     0
102
RTVSPropertyOp30
 70
     0
102
RTVSPropertyOp31
 70
     0
102
RTVSPropertyOp32
 70
     0
102
RTVSPropertyOp33
 70
     0
102
RTVSPropertyOp34
 70
     0
102
RTVSPropertyOp35
 70
     0
102
RTVSPropertyOp36
 70
     0
102
RTVSPropertyOp37
 70
     0
102
RTVSPropertyOp38
 70
     0
102
RTVSPropertyOp39
 70
     0
102
RTVSPropertyOp40
 70
     0
102
RTVSPropertyOp41
 70
     0
102
RTVSPropertyOp42
 70
     0
102
RTVSPropertyOp43
 70
     0
102
RTVSPropertyOp44
 70
     0
102
RTVSPropertyOp45
 70
     0
102
RTVSPropertyOp46
 70
     0
102
RTVSPropertyOp47
 70
     0
102
RTVSPropertyOp48
 70
     0
102
RTVSPropertyOp49
 70
     0
102
RTVSPropertyOp50
 70
     0
102
RTVSPropertyOp51
 70
     0
102
RTVSPropertyOp52
 70
     0
102
RTVSPropertyOp53
 70
     0
102
RTVSPropertyOp54
 70
     0
102
RTVSPropertyOp55
 70
     0
102
RTVSPropertyOp56
 70
     0
102
RTVSPropertyOp57
 70
     0
102
RTVSPost2010Prop28
280
     0
102
RTVSPost2010PropOp28
 70
     0
102
RTVSPost2010Prop29
280
     1
102
RTVSPost2010PropOp29
 70
     0
102
RTVSPost2010Prop30
280
     1
102
RTVSPost2010PropOp30
 70
     0
102
RTVSPost2010Prop31
280
     0
102
RTVSPost2010PropOp31
 70
     0
102
RTVSPost2010Prop32
280
     0
102
RTVSPost2010PropOp32
 70
     0
102
RTVSPost2010Prop33
280
     0
102
RTVSPost2010PropOp33
 70
     0
102
RTVSPost2010Prop34
280
     0
102
RTVSPost2010PropOp34
 70
     0
102
RTVSPost2010Prop35
280
     0
102
RTVSPost2010PropOp35
 70
     0
102
RTVSPost2010Prop36
280
     0
102
RTVSPost2010PropOp36
 70
     0
102
RTVSPost2010Prop37
 90
       50
102
RTVSPost2010PropOp37
 70
     0
102
RTVSPost2010Prop38
140
0.0
102
RTVSPost2010PropOp38
 70
     0
102
RTVSPost2010Prop39
140
1.0
102
RTVSPost2010PropOp39
 70
     0
102
RTVSPost2010Prop40
 90
        0
102
RTVSPost2010PropOp40
 70
     0
102
RTVSPost2010Prop41ColorIndex
 90
       18
102
RTVSPost2010Prop41ColorRGB
 90
        0
102
RTVSPost2010PropOp41
 70
     0
102
RTVSPost2010Prop42
 90
       50
102
RTVSPost2010PropOp42
 70
     0
102
RTVSPost2010Prop43
 90
        3
102
RTVSPost2010PropOp43
 70
     0
102
RTVSPost2010Prop44ColorIndex
 90
        5
102
RTVSPost2010Prop44ColorRGB
 90
      255
102
RTVSPost2010PropOp44
 70
     0
102
RTVSPost2010Prop45
280
     0
102
RTVSPost2010PropOp45
 70
     0
102
RTVSPost2010Prop46
 90
       50
102
RTVSPost2010PropOp46
 70
     0
102
RTVSPost2010Prop47
 90
       50
102
RTVSPost2010PropOp47
 70
     0
102
RTVSPost2010Prop48
 90
       50
102
RTVSPost2010PropOp48
 70
     0
102
RTVSPost2010Prop49
280
     0
102
RTVSPost2010PropOp49
 70
     0
102
RTVSPost2010Prop50
 90
       50
102
RTVSPost2010PropOp50
 70
     0
102
RTVSPost2010Prop51ColorIndex
 90
      256
102
RTVSPost2010Prop51ColorRGB
 90
-16777216
102
RTVSPost2010PropOp51
 70
     0
102
RTVSPost2010Prop52
140
1.0
102
RTVSPost2010PropOp52
 70
     0
102
RTVSPost2010Prop53
 90
        2
102
RTVSPost2010PropOp53
 70
     0
102
RTVSPost2010Prop54
  1
strokes_ogs.tif
102
RTVSPost2010PropOp54
 70
     0
102
RTVSPost2010Prop55
280
     0
102
RTVSPost2010PropOp55
 70
     0
102
RTVSPost2010Prop56
140
1.0
102
RTVSPost2010PropOp56
 70
     0
102
RTVSPost2010Prop57
140
1.0
102
RTVSPost2010PropOp57
 70
     0
  0
XRECORD
  5
14B
102
{ACAD_REACTORS
330
14A
102
}
330
14A
100
AcDbXrecord
280
     1
102
RTVSPropertyOp0
 70
     1
102
RTVSPropertyOp1
 70
     1
102
RTVSPropertyOp2
 70
     1
102
RTVSPropertyOp3
 70
     1
102
RTVSPropertyOp4
 70
     1
102
RTVSPropertyOp5
 70
     1
102
RTVSPropertyOp6
 70
     1
102
RTVSPropertyOp7
 70
     1
102
RTVSPropertyOp8
 70
     1
102
RTVSPropertyOp9
 70
     1
102
RTVSPropertyOp10
 70
     1
102
RTVSPropertyOp11
 70
     1
102
RTVSPropertyOp12
 70
     1
102
RTVSPropertyOp13
 70
     1
102
RTVSPropertyOp14
 70
     1
102
RTVSPropertyOp15
 70
     1
102
RTVSPropertyOp16
 70
     1
102
RTVSPropertyOp17
 70
     1
102
RTVSPropertyOp18
 70
     1
102
RTVSPropertyOp19
 70
     1
102
RTVSPropertyOp20
 70
     1
102
RTVSPropertyOp21
 70
     1
102
RTVSPropertyOp22
 70
     1
102
RTVSPropertyOp23
 70
     1
102
RTVSPropertyOp24
 70
     1
102
RTVSPropertyOp25
 70
     1
102
RTVSPropertyOp26
 70
     1
102
RTVSPropertyOp27
 70
     1
102
RTVSPropertyOp28
 70
     1
102
RTVSPropertyOp29
 70
     1
102
RTVSPropertyOp30
 70
     1
102
RTVSPropertyOp31
 70
     1
102
RTVSPropertyOp32
 70
     1
102
RTVSPropertyOp33
 70
     1
102
RTVSPropertyOp34
 70
     1
102
RTVSPropertyOp35
 70
     1
102
RTVSPropertyOp36
 70
     1
102
RTVSPropertyOp37
 70
     1
102
RTVSPropertyOp38
 70
     1
102
RTVSPropertyOp39
 70
     1
102
RTVSPropertyOp40
 70
     1
102
RTVSPropertyOp41
 70
     1
102
RTVSPropertyOp42
 70
     1
102
RTVSPropertyOp43
 70
     1
102
RTVSPropertyOp44
 70
     1
102
RTVSPropertyOp45
 70
     1
102
RTVSPropertyOp46
 70
     1
102
RTVSPropertyOp47
 70
     1
102
RTVSPropertyOp48
 70
     1
102
RTVSPropertyOp49
 70
     1
102
RTVSPropertyOp50
 70
     1
102
RTVSPropertyOp51
 70
     0
102
RTVSPropertyOp52
 70
     0
102
RTVSPropertyOp53
 70
     1
102
RTVSPropertyOp54
 70
     1
102
RTVSPropertyOp55
 70
     1
102
RTVSPropertyOp56
 70
     1
102
RTVSPropertyOp57
 70
     1
102
RTVSPost2010Prop28
280
     0
102
RTVSPost2010PropOp28
 70
     1
102
RTVSPost2010Prop29
280
     1
102
RTVSPost2010PropOp29
 70
     1
102
RTVSPost2010Prop30
280
     1
102
RTVSPost2010PropOp30
 70
     1
102
RTVSPost2010Prop31
280
     0
102
RTVSPost2010PropOp31
 70
     1
102
RTVSPost2010Prop32
280
     0
102
RTVSPost2010PropOp32
 70
     1
102
RTVSPost2010Prop33
280
     0
102
RTVSPost2010PropOp33
 70
     1
102
RTVSPost2010Prop34
280
     0
102
RTVSPost2010PropOp34
 70
     1
102
RTVSPost2010Prop35
280
     0
102
RTVSPost2010PropOp35
 70
     1
102
RTVSPost2010Prop36
280
     0
102
RTVSPost2010PropOp36
 70
     1
102
RTVSPost2010Prop37
 90
       50
102
RTVSPost2010PropOp37
 70
     1
102
RTVSPost2010Prop38
140
0.0
102
RTVSPost2010PropOp38
 70
     1
102
RTVSPost2010Prop39
140
1.0
102
RTVSPost2010PropOp39
 70
     1
102
RTVSPost2010Prop40
 90
        0
102
RTVSPost2010PropOp40
 70
     1
102
RTVSPost2010Prop41ColorIndex
 90
       18
102
RTVSPost2010Prop41ColorRGB
 90
        0
102
RTVSPost2010PropOp41
 70
     1
102
RTVSPost2010Prop42
 90
       50
102
RTVSPost2010PropOp42
 70
     1
102
RTVSPost2010Prop43
 90
        3
102
RTVSPost2010PropOp43
 70
     1
102
RTVSPost2010Prop44ColorIndex
 90
        5
102
RTVSPost2010Prop44ColorRGB
 90
      255
102
RTVSPost2010PropOp44
 70
     1
102
RTVSPost2010Prop45
280
     0
102
RTVSPost2010PropOp45
 70
     1
102
RTVSPost2010Prop46
 90
       50
102
RTVSPost2010PropOp46
 70
     1
102
RTVSPost2010Prop47
 90
       50
102
RTVSPost2010PropOp47
 70
     1
102
RTVSPost2010Prop48
 90
       50
102
RTVSPost2010PropOp48
 70
     1
102
RTVSPost2010Prop49
280
     0
102
RTVSPost2010PropOp49
 70
     1
102
RTVSPost2010Prop50
 90
       50
102
RTVSPost2010PropOp50
 70
     1
102
RTVSPost2010Prop51ColorIndex
 90
      256
102
RTVSPost2010Prop51ColorRGB
 90
-16777216
102
RTVSPost2010PropOp51
 70
     0
102
RTVSPost2010Prop52
140
1.0
102
RTVSPost2010PropOp52
 70
     0
102
RTVSPost2010Prop53
 90
        2
102
RTVSPost2010PropOp53
 70
     1
102
RTVSPost2010Prop54
  1
strokes_ogs.tif
102
RTVSPost2010PropOp54
 70
     1
102
RTVSPost2010Prop55
280
     0
102
RTVSPost2010PropOp55
 70
     1
102
RTVSPost2010Prop56
140
1.0
102
RTVSPost2010PropOp56
 70
     1
102
RTVSPost2010Prop57
140
1.0
102
RTVSPost2010PropOp57
 70
     1
  0
XRECORD
  5
12F
102
{ACAD_REACTORS
330
12E
102
}
330
12E
100
AcDbXrecord
280
     1
102
RTVSPropertyOp0
 70
     1
102
RTVSPropertyOp1
 70
     1
102
RTVSPropertyOp2
 70
     1
102
RTVSPropertyOp3
 70
     1
102
RTVSPropertyOp4
 70
     1
102
RTVSPropertyOp5
 70
     1
102
RTVSPropertyOp6
 70
     1
102
RTVSPropertyOp7
 70
     1
102
RTVSPropertyOp8
 70
     1
102
RTVSPropertyOp9
 70
     1
102
RTVSPropertyOp10
 70
     1
102
RTVSPropertyOp11
 70
     1
102
RTVSPropertyOp12
 70
     1
102
RTVSPropertyOp13
 70
     1
102
RTVSPropertyOp14
 70
     1
102
RTVSPropertyOp15
 70
     1
102
RTVSPropertyOp16
 70
     1
102
RTVSPropertyOp17
 70
     1
102
RTVSPropertyOp18
 70
     1
102
RTVSPropertyOp19
 70
     1
102
RTVSPropertyOp20
 70
     1
102
RTVSPropertyOp21
 70
     1
102
RTVSPropertyOp22
 70
     1
102
RTVSPropertyOp23
 70
     1
102
RTVSPropertyOp24
 70
     1
102
RTVSPropertyOp25
 70
     1
102
RTVSPropertyOp26
 70
     1
102
RTVSPropertyOp27
 70
     1
102
RTVSPropertyOp28
 70
     1
102
RTVSPropertyOp29
 70
     1
102
RTVSPropertyOp30
 70
     1
102
RTVSPropertyOp31
 70
     1
102
RTVSPropertyOp32
 70
     1
102
RTVSPropertyOp33
 70
     1
102
RTVSPropertyOp34
 70
     1
102
RTVSPropertyOp35
 70
     1
102
RTVSPropertyOp36
 70
     1
102
RTVSPropertyOp37
 70
     1
102
RTVSPropertyOp38
 70
     1
102
RTVSPropertyOp39
 70
     1
102
RTVSPropertyOp40
 70
     1
102
RTVSPropertyOp41
 70
     1
102
RTVSPropertyOp42
 70
     1
102
RTVSPropertyOp43
 70
     1
102
RTVSPropertyOp44
 70
     1
102
RTVSPropertyOp45
 70
     1
102
RTVSPropertyOp46
 70
     1
102
RTVSPropertyOp47
 70
     1
102
RTVSPropertyOp48
 70
     1
102
RTVSPropertyOp49
 70
     1
102
RTVSPropertyOp50
 70
     1
102
RTVSPropertyOp51
 70
     0
102
RTVSPropertyOp52
 70
     0
102
RTVSPropertyOp53
 70
     1
102
RTVSPropertyOp54
 70
     1
102
RTVSPropertyOp55
 70
     1
102
RTVSPropertyOp56
 70
     1
102
RTVSPropertyOp57
 70
     1
102
RTVSPost2010Prop28
280
     0
102
RTVSPost2010PropOp28
 70
     1
102
RTVSPost2010Prop29
280
     1
102
RTVSPost2010PropOp29
 70
     1
102
RTVSPost2010Prop30
280
     1
102
RTVSPost2010PropOp30
 70
     1
102
RTVSPost2010Prop31
280
     0
102
RTVSPost2010PropOp31
 70
     1
102
RTVSPost2010Prop32
280
     0
102
RTVSPost2010PropOp32
 70
     1
102
RTVSPost2010Prop33
280
     0
102
RTVSPost2010PropOp33
 70
     1
102
RTVSPost2010Prop34
280
     0
102
RTVSPost2010PropOp34
 70
     1
102
RTVSPost2010Prop35
280
     0
102
RTVSPost2010PropOp35
 70
     1
102
RTVSPost2010Prop36
280
     0
102
RTVSPost2010PropOp36
 70
     1
102
RTVSPost2010Prop37
 90
       50
102
RTVSPost2010PropOp37
 70
     1
102
RTVSPost2010Prop38
140
0.0
102
RTVSPost2010PropOp38
 70
     1
102
RTVSPost2010Prop39
140
1.0
102
RTVSPost2010PropOp39
 70
     1
102
RTVSPost2010Prop40
 90
        0
102
RTVSPost2010PropOp40
 70
     1
102
RTVSPost2010Prop41ColorIndex
 90
       18
102
RTVSPost2010Prop41ColorRGB
 90
        0
102
RTVSPost2010PropOp41
 70
     1
102
RTVSPost2010Prop42
 90
       50
102
RTVSPost2010PropOp42
 70
     1
102
RTVSPost2010Prop43
 90
        3
102
RTVSPost2010PropOp43
 70
     1
102
RTVSPost2010Prop44ColorIndex
 90
        5
102
RTVSPost2010Prop44ColorRGB
 90
      255
102
RTVSPost2010PropOp44
 70
     1
102
RTVSPost2010Prop45
280
     0
102
RTVSPost2010PropOp45
 70
     1
102
RTVSPost2010Prop46
 90
       50
102
RTVSPost2010PropOp46
 70
     1
102
RTVSPost2010Prop47
 90
       50
102
RTVSPost2010PropOp47
 70
     1
102
RTVSPost2010Prop48
 90
       50
102
RTVSPost2010PropOp48
 70
     1
102
RTVSPost2010Prop49
280
     0
102
RTVSPost2010PropOp49
 70
     1
102
RTVSPost2010Prop50
 90
       50
102
RTVSPost2010PropOp50
 70
     1
102
RTVSPost2010Prop51ColorIndex
 90
      256
102
RTVSPost2010Prop51ColorRGB
 90
-16777216
102
RTVSPost2010PropOp51
 70
     0
102
RTVSPost2010Prop52
140
1.0
102
RTVSPost2010PropOp52
 70
     0
102
RTVSPost2010Prop53
 90
        2
102
RTVSPost2010PropOp53
 70
     1
102
RTVSPost2010Prop54
  1
strokes_ogs.tif
102
RTVSPost2010PropOp54
 70
     1
102
RTVSPost2010Prop55
280
     0
102
RTVSPost2010PropOp55
 70
     1
102
RTVSPost2010Prop56
140
1.0
102
RTVSPost2010PropOp56
 70
     1
102
RTVSPost2010Prop57
140
1.0
102
RTVSPost2010PropOp57
 70
     1
  0
XRECORD
  5
131
102
{ACAD_REACTORS
330
130
102
}
330
130
100
AcDbXrecord
280
     1
102
RTVSPropertyOp0
 70
     1
102
RTVSPropertyOp1
 70
     1
102
RTVSPropertyOp2
 70
     1
102
RTVSPropertyOp3
 70
     1
102
RTVSPropertyOp4
 70
     1
102
RTVSPropertyOp5
 70
     1
102
RTVSPropertyOp6
 70
     1
102
RTVSPropertyOp7
 70
     1
102
RTVSPropertyOp8
 70
     1
102
RTVSPropertyOp9
 70
     1
102
RTVSPropertyOp10
 70
     1
102
RTVSPropertyOp11
 70
     1
102
RTVSPropertyOp12
 70
     1
102
RTVSPropertyOp13
 70
     1
102
RTVSPropertyOp14
 70
     1
102
RTVSPropertyOp15
 70
     1
102
RTVSPropertyOp16
 70
     1
102
RTVSPropertyOp17
 70
     1
102
RTVSPropertyOp18
 70
     1
102
RTVSPropertyOp19
 70
     1
102
RTVSPropertyOp20
 70
     1
102
RTVSPropertyOp21
 70
     1
102
RTVSPropertyOp22
 70
     1
102
RTVSPropertyOp23
 70
     1
102
RTVSPropertyOp24
 70
     1
102
RTVSPropertyOp25
 70
     1
102
RTVSPropertyOp26
 70
     1
102
RTVSPropertyOp27
 70
     1
102
RTVSPropertyOp28
 70
     1
102
RTVSPropertyOp29
 70
     1
102
RTVSPropertyOp30
 70
     1
102
RTVSPropertyOp31
 70
     1
102
RTVSPropertyOp32
 70
     1
102
RTVSPropertyOp33
 70
     1
102
RTVSPropertyOp34
 70
     1
102
RTVSPropertyOp35
 70
     1
102
RTVSPropertyOp36
 70
     1
102
RTVSPropertyOp37
 70
     1
102
RTVSPropertyOp38
 70
     1
102
RTVSPropertyOp39
 70
     1
102
RTVSPropertyOp40
 70
     1
102
RTVSPropertyOp41
 70
     1
102
RTVSPropertyOp42
 70
     1
102
RTVSPropertyOp43
 70
     1
102
RTVSPropertyOp44
 70
     1
102
RTVSPropertyOp45
 70
     1
102
RTVSPropertyOp46
 70
     1
102
RTVSPropertyOp47
 70
     1
102
RTVSPropertyOp48
 70
     1
102
RTVSPropertyOp49
 70
     1
102
RTVSPropertyOp50
 70
     1
102
RTVSPropertyOp51
 70
     0
102
RTVSPropertyOp52
 70
     0
102
RTVSPropertyOp53
 70
     1
102
RTVSPropertyOp54
 70
     1
102
RTVSPropertyOp55
 70
     1
102
RTVSPropertyOp56
 70
     1
102
RTVSPropertyOp57
 70
     1
102
RTVSPost2010Prop28
280
     0
102
RTVSPost2010PropOp28
 70
     1
102
RTVSPost2010Prop29
280
     1
102
RTVSPost2010PropOp29
 70
     1
102
RTVSPost2010Prop30
280
     1
102
RTVSPost2010PropOp30
 70
     1
102
RTVSPost2010Prop31
280
     0
102
RTVSPost2010PropOp31
 70
     1
102
RTVSPost2010Prop32
280
     0
102
RTVSPost2010PropOp32
 70
     1
102
RTVSPost2010Prop33
280
     0
102
RTVSPost2010PropOp33
 70
     1
102
RTVSPost2010Prop34
280
     0
102
RTVSPost2010PropOp34
 70
     1
102
RTVSPost2010Prop35
280
     0
102
RTVSPost2010PropOp35
 70
     1
102
RTVSPost2010Prop36
280
     0
102
RTVSPost2010PropOp36
 70
     1
102
RTVSPost2010Prop37
 90
       50
102
RTVSPost2010PropOp37
 70
     1
102
RTVSPost2010Prop38
140
0.0
102
RTVSPost2010PropOp38
 70
     1
102
RTVSPost2010Prop39
140
1.0
102
RTVSPost2010PropOp39
 70
     1
102
RTVSPost2010Prop40
 90
        0
102
RTVSPost2010PropOp40
 70
     1
102
RTVSPost2010Prop41ColorIndex
 90
       18
102
RTVSPost2010Prop41ColorRGB
 90
        0
102
RTVSPost2010PropOp41
 70
     1
102
RTVSPost2010Prop42
 90
       50
102
RTVSPost2010PropOp42
 70
     1
102
RTVSPost2010Prop43
 90
        3
102
RTVSPost2010PropOp43
 70
     1
102
RTVSPost2010Prop44ColorIndex
 90
        5
102
RTVSPost2010Prop44ColorRGB
 90
      255
102
RTVSPost2010PropOp44
 70
     1
102
RTVSPost2010Prop45
280
     0
102
RTVSPost2010PropOp45
 70
     1
102
RTVSPost2010Prop46
 90
       50
102
RTVSPost2010PropOp46
 70
     1
102
RTVSPost2010Prop47
 90
       50
102
RTVSPost2010PropOp47
 70
     1
102
RTVSPost2010Prop48
 90
       50
102
RTVSPost2010PropOp48
 70
     1
102
RTVSPost2010Prop49
280
     0
102
RTVSPost2010PropOp49
 70
     1
102
RTVSPost2010Prop50
 90
       50
102
RTVSPost2010PropOp50
 70
     1
102
RTVSPost2010Prop51ColorIndex
 90
      256
102
RTVSPost2010Prop51ColorRGB
 90
-16777216
102
RTVSPost2010PropOp51
 70
     0
102
RTVSPost2010Prop52
140
1.0
102
RTVSPost2010PropOp52
 70
     0
102
RTVSPost2010Prop53
 90
        2
102
RTVSPost2010PropOp53
 70
     1
102
RTVSPost2010Prop54
  1
strokes_ogs.tif
102
RTVSPost2010PropOp54
 70
     1
102
RTVSPost2010Prop55
280
     0
102
RTVSPost2010PropOp55
 70
     1
102
RTVSPost2010Prop56
140
1.0
102
RTVSPost2010PropOp56
 70
     1
102
RTVSPost2010Prop57
140
1.0
102
RTVSPost2010PropOp57
 70
     1
  0
XRECORD
  5
133
102
{ACAD_REACTORS
330
132
102
}
330
132
100
AcDbXrecord
280
     1
102
RTVSPropertyOp0
 70
     1
102
RTVSPropertyOp1
 70
     1
102
RTVSPropertyOp2
 70
     1
102
RTVSPropertyOp3
 70
     1
102
RTVSPropertyOp4
 70
     1
102
RTVSPropertyOp5
 70
     1
102
RTVSPropertyOp6
 70
     1
102
RTVSPropertyOp7
 70
     1
102
RTVSPropertyOp8
 70
     1
102
RTVSPropertyOp9
 70
     1
102
RTVSPropertyOp10
 70
     1
102
RTVSPropertyOp11
 70
     1
102
RTVSPropertyOp12
 70
     1
102
RTVSPropertyOp13
 70
     1
102
RTVSPropertyOp14
 70
     1
102
RTVSPropertyOp15
 70
     1
102
RTVSPropertyOp16
 70
     1
102
RTVSPropertyOp17
 70
     1
102
RTVSPropertyOp18
 70
     1
102
RTVSPropertyOp19
 70
     1
102
RTVSPropertyOp20
 70
     1
102
RTVSPropertyOp21
 70
     1
102
RTVSPropertyOp22
 70
     1
102
RTVSPropertyOp23
 70
     1
102
RTVSPropertyOp24
 70
     1
102
RTVSPropertyOp25
 70
     1
102
RTVSPropertyOp26
 70
     1
102
RTVSPropertyOp27
 70
     1
102
RTVSPropertyOp28
 70
     1
102
RTVSPropertyOp29
 70
     1
102
RTVSPropertyOp30
 70
     1
102
RTVSPropertyOp31
 70
     1
102
RTVSPropertyOp32
 70
     1
102
RTVSPropertyOp33
 70
     1
102
RTVSPropertyOp34
 70
     1
102
RTVSPropertyOp35
 70
     1
102
RTVSPropertyOp36
 70
     1
102
RTVSPropertyOp37
 70
     1
102
RTVSPropertyOp38
 70
     1
102
RTVSPropertyOp39
 70
     1
102
RTVSPropertyOp40
 70
     1
102
RTVSPropertyOp41
 70
     1
102
RTVSPropertyOp42
 70
     1
102
RTVSPropertyOp43
 70
     1
102
RTVSPropertyOp44
 70
     1
102
RTVSPropertyOp45
 70
     1
102
RTVSPropertyOp46
 70
     1
102
RTVSPropertyOp47
 70
     1
102
RTVSPropertyOp48
 70
     1
102
RTVSPropertyOp49
 70
     1
102
RTVSPropertyOp50
 70
     1
102
RTVSPropertyOp51
 70
     0
102
RTVSPropertyOp52
 70
     0
102
RTVSPropertyOp53
 70
     1
102
RTVSPropertyOp54
 70
     1
102
RTVSPropertyOp55
 70
     1
102
RTVSPropertyOp56
 70
     1
102
RTVSPropertyOp57
 70
     1
102
RTVSPost2010Prop28
280
     0
102
RTVSPost2010PropOp28
 70
     1
102
RTVSPost2010Prop29
280
     1
102
RTVSPost2010PropOp29
 70
     1
102
RTVSPost2010Prop30
280
     1
102
RTVSPost2010PropOp30
 70
     1
102
RTVSPost2010Prop31
280
     0
102
RTVSPost2010PropOp31
 70
     1
102
RTVSPost2010Prop32
280
     0
102
RTVSPost2010PropOp32
 70
     1
102
RTVSPost2010Prop33
280
     0
102
RTVSPost2010PropOp33
 70
     1
102
RTVSPost2010Prop34
280
     0
102
RTVSPost2010PropOp34
 70
     1
102
RTVSPost2010Prop35
280
     0
102
RTVSPost2010PropOp35
 70
     1
102
RTVSPost2010Prop36
280
     0
102
RTVSPost2010PropOp36
 70
     1
102
RTVSPost2010Prop37
 90
       50
102
RTVSPost2010PropOp37
 70
     1
102
RTVSPost2010Prop38
140
0.0
102
RTVSPost2010PropOp38
 70
     1
102
RTVSPost2010Prop39
140
1.0
102
RTVSPost2010PropOp39
 70
     1
102
RTVSPost2010Prop40
 90
        0
102
RTVSPost2010PropOp40
 70
     1
102
RTVSPost2010Prop41ColorIndex
 90
       18
102
RTVSPost2010Prop41ColorRGB
 90
        0
102
RTVSPost2010PropOp41
 70
     1
102
RTVSPost2010Prop42
 90
       50
102
RTVSPost2010PropOp42
 70
     1
102
RTVSPost2010Prop43
 90
        3
102
RTVSPost2010PropOp43
 70
     1
102
RTVSPost2010Prop44ColorIndex
 90
        5
102
RTVSPost2010Prop44ColorRGB
 90
      255
102
RTVSPost2010PropOp44
 70
     1
102
RTVSPost2010Prop45
280
     0
102
RTVSPost2010PropOp45
 70
     1
102
RTVSPost2010Prop46
 90
       50
102
RTVSPost2010PropOp46
 70
     1
102
RTVSPost2010Prop47
 90
       50
102
RTVSPost2010PropOp47
 70
     1
102
RTVSPost2010Prop48
 90
       50
102
RTVSPost2010PropOp48
 70
     1
102
RTVSPost2010Prop49
280
     0
102
RTVSPost2010PropOp49
 70
     1
102
RTVSPost2010Prop50
 90
       50
102
RTVSPost2010PropOp50
 70
     1
102
RTVSPost2010Prop51ColorIndex
 90
      256
102
RTVSPost2010Prop51ColorRGB
 90
-16777216
102
RTVSPost2010PropOp51
 70
     0
102
RTVSPost2010Prop52
140
1.0
102
RTVSPost2010PropOp52
 70
     0
102
RTVSPost2010Prop53
 90
        2
102
RTVSPost2010PropOp53
 70
     1
102
RTVSPost2010Prop54
  1
strokes_ogs.tif
102
RTVSPost2010PropOp54
 70
     1
102
RTVSPost2010Prop55
280
     0
102
RTVSPost2010PropOp55
 70
     1
102
RTVSPost2010Prop56
140
1.0
102
RTVSPost2010PropOp56
 70
     1
102
RTVSPost2010Prop57
140
1.0
102
RTVSPost2010PropOp57
 70
     1
  0
XRECORD
  5
135
102
{ACAD_REACTORS
330
134
102
}
330
134
100
AcDbXrecord
280
     1
102
RTVSPropertyOp0
 70
     1
102
RTVSPropertyOp1
 70
     1
102
RTVSPropertyOp2
 70
     1
102
RTVSPropertyOp3
 70
     1
102
RTVSPropertyOp4
 70
     1
102
RTVSPropertyOp5
 70
     1
102
RTVSPropertyOp6
 70
     1
102
RTVSPropertyOp7
 70
     1
102
RTVSPropertyOp8
 70
     1
102
RTVSPropertyOp9
 70
     1
102
RTVSPropertyOp10
 70
     1
102
RTVSPropertyOp11
 70
     1
102
RTVSPropertyOp12
 70
     1
102
RTVSPropertyOp13
 70
     1
102
RTVSPropertyOp14
 70
     1
102
RTVSPropertyOp15
 70
     1
102
RTVSPropertyOp16
 70
     1
102
RTVSPropertyOp17
 70
     1
102
RTVSPropertyOp18
 70
     1
102
RTVSPropertyOp19
 70
     1
102
RTVSPropertyOp20
 70
     1
102
RTVSPropertyOp21
 70
     1
102
RTVSPropertyOp22
 70
     1
102
RTVSPropertyOp23
 70
     1
102
RTVSPropertyOp24
 70
     1
102
RTVSPropertyOp25
 70
     1
102
RTVSPropertyOp26
 70
     1
102
RTVSPropertyOp27
 70
     1
102
RTVSPropertyOp28
 70
     1
102
RTVSPropertyOp29
 70
     1
102
RTVSPropertyOp30
 70
     1
102
RTVSPropertyOp31
 70
     1
102
RTVSPropertyOp32
 70
     1
102
RTVSPropertyOp33
 70
     1
102
RTVSPropertyOp34
 70
     1
102
RTVSPropertyOp35
 70
     1
102
RTVSPropertyOp36
 70
     1
102
RTVSPropertyOp37
 70
     1
102
RTVSPropertyOp38
 70
     1
102
RTVSPropertyOp39
 70
     1
102
RTVSPropertyOp40
 70
     1
102
RTVSPropertyOp41
 70
     1
102
RTVSPropertyOp42
 70
     1
102
RTVSPropertyOp43
 70
     1
102
RTVSPropertyOp44
 70
     1
102
RTVSPropertyOp45
 70
     1
102
RTVSPropertyOp46
 70
     1
102
RTVSPropertyOp47
 70
     1
102
RTVSPropertyOp48
 70
     1
102
RTVSPropertyOp49
 70
     1
102
RTVSPropertyOp50
 70
     1
102
RTVSPropertyOp51
 70
     0
102
RTVSPropertyOp52
 70
     0
102
RTVSPropertyOp53
 70
     1
102
RTVSPropertyOp54
 70
     1
102
RTVSPropertyOp55
 70
     1
102
RTVSPropertyOp56
 70
     1
102
RTVSPropertyOp57
 70
     1
102
RTVSPost2010Prop28
280
     0
102
RTVSPost2010PropOp28
 70
     1
102
RTVSPost2010Prop29
280
     1
102
RTVSPost2010PropOp29
 70
     1
102
RTVSPost2010Prop30
280
     1
102
RTVSPost2010PropOp30
 70
     1
102
RTVSPost2010Prop31
280
     0
102
RTVSPost2010PropOp31
 70
     1
102
RTVSPost2010Prop32
280
     0
102
RTVSPost2010PropOp32
 70
     1
102
RTVSPost2010Prop33
280
     0
102
RTVSPost2010PropOp33
 70
     1
102
RTVSPost2010Prop34
280
     0
102
RTVSPost2010PropOp34
 70
     1
102
RTVSPost2010Prop35
280
     0
102
RTVSPost2010PropOp35
 70
     1
102
RTVSPost2010Prop36
280
     0
102
RTVSPost2010PropOp36
 70
     1
102
RTVSPost2010Prop37
 90
       50
102
RTVSPost2010PropOp37
 70
     1
102
RTVSPost2010Prop38
140
0.0
102
RTVSPost2010PropOp38
 70
     1
102
RTVSPost2010Prop39
140
1.0
102
RTVSPost2010PropOp39
 70
     1
102
RTVSPost2010Prop40
 90
        0
102
RTVSPost2010PropOp40
 70
     1
102
RTVSPost2010Prop41ColorIndex
 90
       18
102
RTVSPost2010Prop41ColorRGB
 90
        0
102
RTVSPost2010PropOp41
 70
     1
102
RTVSPost2010Prop42
 90
       50
102
RTVSPost2010PropOp42
 70
     1
102
RTVSPost2010Prop43
 90
        3
102
RTVSPost2010PropOp43
 70
     1
102
RTVSPost2010Prop44ColorIndex
 90
        5
102
RTVSPost2010Prop44ColorRGB
 90
      255
102
RTVSPost2010PropOp44
 70
     1
102
RTVSPost2010Prop45
280
     0
102
RTVSPost2010PropOp45
 70
     1
102
RTVSPost2010Prop46
 90
       50
102
RTVSPost2010PropOp46
 70
     1
102
RTVSPost2010Prop47
 90
       50
102
RTVSPost2010PropOp47
 70
     1
102
RTVSPost2010Prop48
 90
       50
102
RTVSPost2010PropOp48
 70
     1
102
RTVSPost2010Prop49
280
     0
102
RTVSPost2010PropOp49
 70
     1
102
RTVSPost2010Prop50
 90
       50
102
RTVSPost2010PropOp50
 70
     1
102
RTVSPost2010Prop51ColorIndex
 90
      256
102
RTVSPost2010Prop51ColorRGB
 90
-16777216
102
RTVSPost2010PropOp51
 70
     0
102
RTVSPost2010Prop52
140
1.0
102
RTVSPost2010PropOp52
 70
     0
102
RTVSPost2010Prop53
 90
        2
102
RTVSPost2010PropOp53
 70
     1
102
RTVSPost2010Prop54
  1
strokes_ogs.tif
102
RTVSPost2010PropOp54
 70
     1
102
RTVSPost2010Prop55
280
     0
102
RTVSPost2010PropOp55
 70
     1
102
RTVSPost2010Prop56
140
1.0
102
RTVSPost2010PropOp56
 70
     1
102
RTVSPost2010Prop57
140
1.0
102
RTVSPost2010PropOp57
 70
     1
  0
XRECORD
  5
13B
102
{ACAD_REACTORS
330
13A
102
}
330
13A
100
AcDbXrecord
280
     1
102
RTVSPropertyOp0
 70
     1
102
RTVSPropertyOp1
 70
     1
102
RTVSPropertyOp2
 70
     1
102
RTVSPropertyOp3
 70
     1
102
RTVSPropertyOp4
 70
     1
102
RTVSPropertyOp5
 70
     1
102
RTVSPropertyOp6
 70
     1
102
RTVSPropertyOp7
 70
     1
102
RTVSPropertyOp8
 70
     1
102
RTVSPropertyOp9
 70
     1
102
RTVSPropertyOp10
 70
     1
102
RTVSPropertyOp11
 70
     1
102
RTVSPropertyOp12
 70
     1
102
RTVSPropertyOp13
 70
     1
102
RTVSPropertyOp14
 70
     1
102
RTVSPropertyOp15
 70
     1
102
RTVSPropertyOp16
 70
     1
102
RTVSPropertyOp17
 70
     1
102
RTVSPropertyOp18
 70
     1
102
RTVSPropertyOp19
 70
     1
102
RTVSPropertyOp20
 70
     1
102
RTVSPropertyOp21
 70
     1
102
RTVSPropertyOp22
 70
     1
102
RTVSPropertyOp23
 70
     1
102
RTVSPropertyOp24
 70
     1
102
RTVSPropertyOp25
 70
     1
102
RTVSPropertyOp26
 70
     1
102
RTVSPropertyOp27
 70
     1
102
RTVSPropertyOp28
 70
     1
102
RTVSPropertyOp29
 70
     1
102
RTVSPropertyOp30
 70
     1
102
RTVSPropertyOp31
 70
     1
102
RTVSPropertyOp32
 70
     1
102
RTVSPropertyOp33
 70
     1
102
RTVSPropertyOp34
 70
     1
102
RTVSPropertyOp35
 70
     1
102
RTVSPropertyOp36
 70
     1
102
RTVSPropertyOp37
 70
     1
102
RTVSPropertyOp38
 70
     1
102
RTVSPropertyOp39
 70
     1
102
RTVSPropertyOp40
 70
     1
102
RTVSPropertyOp41
 70
     1
102
RTVSPropertyOp42
 70
     1
102
RTVSPropertyOp43
 70
     1
102
RTVSPropertyOp44
 70
     1
102
RTVSPropertyOp45
 70
     1
102
RTVSPropertyOp46
 70
     1
102
RTVSPropertyOp47
 70
     1
102
RTVSPropertyOp48
 70
     1
102
RTVSPropertyOp49
 70
     1
102
RTVSPropertyOp50
 70
     1
102
RTVSPropertyOp51
 70
     0
102
RTVSPropertyOp52
 70
     0
102
RTVSPropertyOp53
 70
     1
102
RTVSPropertyOp54
 70
     1
102
RTVSPropertyOp55
 70
     1
102
RTVSPropertyOp56
 70
     1
102
RTVSPropertyOp57
 70
     1
102
RTVSPost2010Prop28
280
     0
102
RTVSPost2010PropOp28
 70
     1
102
RTVSPost2010Prop29
280
     1
102
RTVSPost2010PropOp29
 70
     1
102
RTVSPost2010Prop30
280
     1
102
RTVSPost2010PropOp30
 70
     1
102
RTVSPost2010Prop31
280
     0
102
RTVSPost2010PropOp31
 70
     1
102
RTVSPost2010Prop32
280
     0
102
RTVSPost2010PropOp32
 70
     1
102
RTVSPost2010Prop33
280
     0
102
RTVSPost2010PropOp33
 70
     1
102
RTVSPost2010Prop34
280
     0
102
RTVSPost2010PropOp34
 70
     1
102
RTVSPost2010Prop35
280
     0
102
RTVSPost2010PropOp35
 70
     1
102
RTVSPost2010Prop36
280
     0
102
RTVSPost2010PropOp36
 70
     1
102
RTVSPost2010Prop37
 90
       50
102
RTVSPost2010PropOp37
 70
     1
102
RTVSPost2010Prop38
140
0.0
102
RTVSPost2010PropOp38
 70
     1
102
RTVSPost2010Prop39
140
1.0
102
RTVSPost2010PropOp39
 70
     1
102
RTVSPost2010Prop40
 90
        0
102
RTVSPost2010PropOp40
 70
     1
102
RTVSPost2010Prop41ColorIndex
 90
       18
102
RTVSPost2010Prop41ColorRGB
 90
        0
102
RTVSPost2010PropOp41
 70
     1
102
RTVSPost2010Prop42
 90
       50
102
RTVSPost2010PropOp42
 70
     1
102
RTVSPost2010Prop43
 90
        3
102
RTVSPost2010PropOp43
 70
     1
102
RTVSPost2010Prop44ColorIndex
 90
        5
102
RTVSPost2010Prop44ColorRGB
 90
      255
102
RTVSPost2010PropOp44
 70
     1
102
RTVSPost2010Prop45
280
     0
102
RTVSPost2010PropOp45
 70
     1
102
RTVSPost2010Prop46
 90
       50
102
RTVSPost2010PropOp46
 70
     1
102
RTVSPost2010Prop47
 90
       50
102
RTVSPost2010PropOp47
 70
     1
102
RTVSPost2010Prop48
 90
       50
102
RTVSPost2010PropOp48
 70
     1
102
RTVSPost2010Prop49
280
     0
102
RTVSPost2010PropOp49
 70
     1
102
RTVSPost2010Prop50
 90
       50
102
RTVSPost2010PropOp50
 70
     1
102
RTVSPost2010Prop51ColorIndex
 90
      256
102
RTVSPost2010Prop51ColorRGB
 90
-16777216
102
RTVSPost2010PropOp51
 70
     0
102
RTVSPost2010Prop52
140
1.0
102
RTVSPost2010PropOp52
 70
     0
102
RTVSPost2010Prop53
 90
        2
102
RTVSPost2010PropOp53
 70
     1
102
RTVSPost2010Prop54
  1
strokes_ogs.tif
102
RTVSPost2010PropOp54
 70
     1
102
RTVSPost2010Prop55
280
     0
102
RTVSPost2010PropOp55
 70
     1
102
RTVSPost2010Prop56
140
1.0
102
RTVSPost2010PropOp56
 70
     1
102
RTVSPost2010Prop57
140
1.0
102
RTVSPost2010PropOp57
 70
     1
  0
XRECORD
  5
14F
102
{ACAD_REACTORS
330
14E
102
}
330
14E
100
AcDbXrecord
280
     1
102
RTVSPropertyOp0
 70
     0
102
RTVSPropertyOp1
 70
     0
102
RTVSPropertyOp2
 70
     0
102
RTVSPropertyOp3
 70
     0
102
RTVSPropertyOp4
 70
     0
102
RTVSPropertyOp5
 70
     0
102
RTVSPropertyOp6
 70
     0
102
RTVSPropertyOp7
 70
     0
102
RTVSPropertyOp8
 70
     0
102
RTVSPropertyOp9
 70
     0
102
RTVSPropertyOp10
 70
     0
102
RTVSPropertyOp11
 70
     0
102
RTVSPropertyOp12
 70
     0
102
RTVSPropertyOp13
 70
     0
102
RTVSPropertyOp14
 70
     2
102
RTVSPropertyOp15
 70
     0
102
RTVSPropertyOp16
 70
     0
102
RTVSPropertyOp17
 70
     0
102
RTVSPropertyOp18
 70
     0
102
RTVSPropertyOp19
 70
     0
102
RTVSPropertyOp20
 70
     0
102
RTVSPropertyOp21
 70
     0
102
RTVSPropertyOp22
 70
     0
102
RTVSPropertyOp23
 70
     0
102
RTVSPropertyOp24
 70
     0
102
RTVSPropertyOp25
 70
     0
102
RTVSPropertyOp26
 70
     0
102
RTVSPropertyOp27
 70
     0
102
RTVSPropertyOp28
 70
     0
102
RTVSPropertyOp29
 70
     0
102
RTVSPropertyOp30
 70
     0
102
RTVSPropertyOp31
 70
     0
102
RTVSPropertyOp32
 70
     0
102
RTVSPropertyOp33
 70
     0
102
RTVSPropertyOp34
 70
     0
102
RTVSPropertyOp35
 70
     0
102
RTVSPropertyOp36
 70
     0
102
RTVSPropertyOp37
 70
     0
102
RTVSPropertyOp38
 70
     0
102
RTVSPropertyOp39
 70
     0
102
RTVSPropertyOp40
 70
     0
102
RTVSPropertyOp41
 70
     0
102
RTVSPropertyOp42
 70
     0
102
RTVSPropertyOp43
 70
     0
102
RTVSPropertyOp44
 70
     0
102
RTVSPropertyOp45
 70
     0
102
RTVSPropertyOp46
 70
     0
102
RTVSPropertyOp47
 70
     0
102
RTVSPropertyOp48
 70
     0
102
RTVSPropertyOp49
 70
     0
102
RTVSPropertyOp50
 70
     0
102
RTVSPropertyOp51
 70
     0
102
RTVSPropertyOp52
 70
     0
102
RTVSPropertyOp53
 70
     0
102
RTVSPropertyOp54
 70
     0
102
RTVSPropertyOp55
 70
     0
102
RTVSPropertyOp56
 70
     0
102
RTVSPropertyOp57
 70
     0
102
RTVSPost2010Prop28
280
     0
102
RTVSPost2010PropOp28
 70
     0
102
RTVSPost2010Prop29
280
     1
102
RTVSPost2010PropOp29
 70
     0
102
RTVSPost2010Prop30
280
     1
102
RTVSPost2010PropOp30
 70
     0
102
RTVSPost2010Prop31
280
     0
102
RTVSPost2010PropOp31
 70
     0
102
RTVSPost2010Prop32
280
     0
102
RTVSPost2010PropOp32
 70
     0
102
RTVSPost2010Prop33
280
     0
102
RTVSPost2010PropOp33
 70
     0
102
RTVSPost2010Prop34
280
     0
102
RTVSPost2010PropOp34
 70
     0
102
RTVSPost2010Prop35
280
     0
102
RTVSPost2010PropOp35
 70
     0
102
RTVSPost2010Prop36
280
     0
102
RTVSPost2010PropOp36
 70
     0
102
RTVSPost2010Prop37
 90
       50
102
RTVSPost2010PropOp37
 70
     0
102
RTVSPost2010Prop38
140
0.0
102
RTVSPost2010PropOp38
 70
     0
102
RTVSPost2010Prop39
140
1.0
102
RTVSPost2010PropOp39
 70
     0
102
RTVSPost2010Prop40
 90
        0
102
RTVSPost2010PropOp40
 70
     0
102
RTVSPost2010Prop41ColorIndex
 90
       18
102
RTVSPost2010Prop41ColorRGB
 90
        0
102
RTVSPost2010PropOp41
 70
     0
102
RTVSPost2010Prop42
 90
       50
102
RTVSPost2010PropOp42
 70
     0
102
RTVSPost2010Prop43
 90
        3
102
RTVSPost2010PropOp43
 70
     0
102
RTVSPost2010Prop44ColorIndex
 90
        5
102
RTVSPost2010Prop44ColorRGB
 90
      255
102
RTVSPost2010PropOp44
 70
     0
102
RTVSPost2010Prop45
280
     0
102
RTVSPost2010PropOp45
 70
     0
102
RTVSPost2010Prop46
 90
       50
102
RTVSPost2010PropOp46
 70
     0
102
RTVSPost2010Prop47
 90
       50
102
RTVSPost2010PropOp47
 70
     0
102
RTVSPost2010Prop48
 90
       50
102
RTVSPost2010PropOp48
 70
     0
102
RTVSPost2010Prop49
280
     0
102
RTVSPost2010PropOp49
 70
     0
102
RTVSPost2010Prop50
 90
       50
102
RTVSPost2010PropOp50
 70
     0
102
RTVSPost2010Prop51ColorIndex
 90
      256
102
RTVSPost2010Prop51ColorRGB
 90
-16777216
102
RTVSPost2010PropOp51
 70
     0
102
RTVSPost2010Prop52
140
1.0
102
RTVSPost2010PropOp52
 70
     0
102
RTVSPost2010Prop53
 90
        2
102
RTVSPost2010PropOp53
 70
     0
102
RTVSPost2010Prop54
  1
strokes_ogs.tif
102
RTVSPost2010PropOp54
 70
     0
102
RTVSPost2010Prop55
280
     0
102
RTVSPost2010PropOp55
 70
     0
102
RTVSPost2010Prop56
140
1.0
102
RTVSPost2010PropOp56
 70
     0
102
RTVSPost2010Prop57
140
1.0
102
RTVSPost2010PropOp57
 70
     0
  0
XRECORD
  5
149
102
{ACAD_REACTORS
330
148
102
}
330
148
100
AcDbXrecord
280
     1
102
RTVSPropertyOp0
 70
     1
102
RTVSPropertyOp1
 70
     1
102
RTVSPropertyOp2
 70
     1
102
RTVSPropertyOp3
 70
     1
102
RTVSPropertyOp4
 70
     1
102
RTVSPropertyOp5
 70
     1
102
RTVSPropertyOp6
 70
     1
102
RTVSPropertyOp7
 70
     1
102
RTVSPropertyOp8
 70
     1
102
RTVSPropertyOp9
 70
     1
102
RTVSPropertyOp10
 70
     1
102
RTVSPropertyOp11
 70
     1
102
RTVSPropertyOp12
 70
     1
102
RTVSPropertyOp13
 70
     1
102
RTVSPropertyOp14
 70
     1
102
RTVSPropertyOp15
 70
     1
102
RTVSPropertyOp16
 70
     1
102
RTVSPropertyOp17
 70
     1
102
RTVSPropertyOp18
 70
     1
102
RTVSPropertyOp19
 70
     1
102
RTVSPropertyOp20
 70
     1
102
RTVSPropertyOp21
 70
     1
102
RTVSPropertyOp22
 70
     1
102
RTVSPropertyOp23
 70
     1
102
RTVSPropertyOp24
 70
     1
102
RTVSPropertyOp25
 70
     1
102
RTVSPropertyOp26
 70
     1
102
RTVSPropertyOp27
 70
     1
102
RTVSPropertyOp28
 70
     1
102
RTVSPropertyOp29
 70
     1
102
RTVSPropertyOp30
 70
     1
102
RTVSPropertyOp31
 70
     1
102
RTVSPropertyOp32
 70
     1
102
RTVSPropertyOp33
 70
     1
102
RTVSPropertyOp34
 70
     1
102
RTVSPropertyOp35
 70
     1
102
RTVSPropertyOp36
 70
     1
102
RTVSPropertyOp37
 70
     1
102
RTVSPropertyOp38
 70
     1
102
RTVSPropertyOp39
 70
     1
102
RTVSPropertyOp40
 70
     1
102
RTVSPropertyOp41
 70
     1
102
RTVSPropertyOp42
 70
     1
102
RTVSPropertyOp43
 70
     1
102
RTVSPropertyOp44
 70
     1
102
RTVSPropertyOp45
 70
     1
102
RTVSPropertyOp46
 70
     1
102
RTVSPropertyOp47
 70
     1
102
RTVSPropertyOp48
 70
     1
102
RTVSPropertyOp49
 70
     1
102
RTVSPropertyOp50
 70
     1
102
RTVSPropertyOp51
 70
     0
102
RTVSPropertyOp52
 70
     0
102
RTVSPropertyOp53
 70
     1
102
RTVSPropertyOp54
 70
     1
102
RTVSPropertyOp55
 70
     1
102
RTVSPropertyOp56
 70
     1
102
RTVSPropertyOp57
 70
     1
102
RTVSPost2010Prop28
280
     0
102
RTVSPost2010PropOp28
 70
     1
102
RTVSPost2010Prop29
280
     1
102
RTVSPost2010PropOp29
 70
     1
102
RTVSPost2010Prop30
280
     1
102
RTVSPost2010PropOp30
 70
     1
102
RTVSPost2010Prop31
280
     0
102
RTVSPost2010PropOp31
 70
     1
102
RTVSPost2010Prop32
280
     0
102
RTVSPost2010PropOp32
 70
     1
102
RTVSPost2010Prop33
280
     0
102
RTVSPost2010PropOp33
 70
     1
102
RTVSPost2010Prop34
280
     0
102
RTVSPost2010PropOp34
 70
     1
102
RTVSPost2010Prop35
280
     0
102
RTVSPost2010PropOp35
 70
     1
102
RTVSPost2010Prop36
280
     0
102
RTVSPost2010PropOp36
 70
     1
102
RTVSPost2010Prop37
 90
       50
102
RTVSPost2010PropOp37
 70
     1
102
RTVSPost2010Prop38
140
0.0
102
RTVSPost2010PropOp38
 70
     1
102
RTVSPost2010Prop39
140
1.0
102
RTVSPost2010PropOp39
 70
     1
102
RTVSPost2010Prop40
 90
        0
102
RTVSPost2010PropOp40
 70
     1
102
RTVSPost2010Prop41ColorIndex
 90
       18
102
RTVSPost2010Prop41ColorRGB
 90
        0
102
RTVSPost2010PropOp41
 70
     1
102
RTVSPost2010Prop42
 90
       50
102
RTVSPost2010PropOp42
 70
     1
102
RTVSPost2010Prop43
 90
        3
102
RTVSPost2010PropOp43
 70
     1
102
RTVSPost2010Prop44ColorIndex
 90
        5
102
RTVSPost2010Prop44ColorRGB
 90
      255
102
RTVSPost2010PropOp44
 70
     1
102
RTVSPost2010Prop45
280
     0
102
RTVSPost2010PropOp45
 70
     1
102
RTVSPost2010Prop46
 90
       50
102
RTVSPost2010PropOp46
 70
     1
102
RTVSPost2010Prop47
 90
       50
102
RTVSPost2010PropOp47
 70
     1
102
RTVSPost2010Prop48
 90
       50
102
RTVSPost2010PropOp48
 70
     1
102
RTVSPost2010Prop49
280
     0
102
RTVSPost2010PropOp49
 70
     1
102
RTVSPost2010Prop50
 90
       50
102
RTVSPost2010PropOp50
 70
     1
102
RTVSPost2010Prop51ColorIndex
 90
      256
102
RTVSPost2010Prop51ColorRGB
 90
-16777216
102
RTVSPost2010PropOp51
 70
     0
102
RTVSPost2010Prop52
140
1.0
102
RTVSPost2010PropOp52
 70
     0
102
RTVSPost2010Prop53
 90
        2
102
RTVSPost2010PropOp53
 70
     1
102
RTVSPost2010Prop54
  1
strokes_ogs.tif
102
RTVSPost2010PropOp54
 70
     1
102
RTVSPost2010Prop55
280
     0
102
RTVSPost2010PropOp55
 70
     1
102
RTVSPost2010Prop56
140
1.0
102
RTVSPost2010PropOp56
 70
     1
102
RTVSPost2010Prop57
140
1.0
102
RTVSPost2010PropOp57
 70
     1
  0
XRECORD
  5
151
102
{ACAD_REACTORS
330
150
102
}
330
150
100
AcDbXrecord
280
     1
102
RTVSPropertyOp0
 70
     0
102
RTVSPropertyOp1
 70
     0
102
RTVSPropertyOp2
 70
     0
102
RTVSPropertyOp3
 70
     0
102
RTVSPropertyOp4
 70
     0
102
RTVSPropertyOp5
 70
     0
102
RTVSPropertyOp6
 70
     0
102
RTVSPropertyOp7
 70
     0
102
RTVSPropertyOp8
 70
     0
102
RTVSPropertyOp9
 70
     0
102
RTVSPropertyOp10
 70
     0
102
RTVSPropertyOp11
 70
     0
102
RTVSPropertyOp12
 70
     0
102
RTVSPropertyOp13
 70
     0
102
RTVSPropertyOp14
 70
     2
102
RTVSPropertyOp15
 70
     0
102
RTVSPropertyOp16
 70
     0
102
RTVSPropertyOp17
 70
     0
102
RTVSPropertyOp18
 70
     0
102
RTVSPropertyOp19
 70
     0
102
RTVSPropertyOp20
 70
     0
102
RTVSPropertyOp21
 70
     0
102
RTVSPropertyOp22
 70
     0
102
RTVSPropertyOp23
 70
     0
102
RTVSPropertyOp24
 70
     0
102
RTVSPropertyOp25
 70
     0
102
RTVSPropertyOp26
 70
     0
102
RTVSPropertyOp27
 70
     0
102
RTVSPropertyOp28
 70
     0
102
RTVSPropertyOp29
 70
     0
102
RTVSPropertyOp30
 70
     0
102
RTVSPropertyOp31
 70
     0
102
RTVSPropertyOp32
 70
     0
102
RTVSPropertyOp33
 70
     0
102
RTVSPropertyOp34
 70
     0
102
RTVSPropertyOp35
 70
     0
102
RTVSPropertyOp36
 70
     0
102
RTVSPropertyOp37
 70
     0
102
RTVSPropertyOp38
 70
     0
102
RTVSPropertyOp39
 70
     0
102
RTVSPropertyOp40
 70
     0
102
RTVSPropertyOp41
 70
     0
102
RTVSPropertyOp42
 70
     0
102
RTVSPropertyOp43
 70
     0
102
RTVSPropertyOp44
 70
     0
102
RTVSPropertyOp45
 70
     0
102
RTVSPropertyOp46
 70
     0
102
RTVSPropertyOp47
 70
     0
102
RTVSPropertyOp48
 70
     0
102
RTVSPropertyOp49
 70
     0
102
RTVSPropertyOp50
 70
     0
102
RTVSPropertyOp51
 70
     0
102
RTVSPropertyOp52
 70
     0
102
RTVSPropertyOp53
 70
     0
102
RTVSPropertyOp54
 70
     0
102
RTVSPropertyOp55
 70
     0
102
RTVSPropertyOp56
 70
     0
102
RTVSPropertyOp57
 70
     0
102
RTVSPost2010Prop28
280
     0
102
RTVSPost2010PropOp28
 70
     0
102
RTVSPost2010Prop29
280
     1
102
RTVSPost2010PropOp29
 70
     0
102
RTVSPost2010Prop30
280
     1
102
RTVSPost2010PropOp30
 70
     0
102
RTVSPost2010Prop31
280
     0
102
RTVSPost2010PropOp31
 70
     0
102
RTVSPost2010Prop32
280
     0
102
RTVSPost2010PropOp32
 70
     0
102
RTVSPost2010Prop33
280
     0
102
RTVSPost2010PropOp33
 70
     0
102
RTVSPost2010Prop34
280
     0
102
RTVSPost2010PropOp34
 70
     0
102
RTVSPost2010Prop35
280
     0
102
RTVSPost2010PropOp35
 70
     0
102
RTVSPost2010Prop36
280
     0
102
RTVSPost2010PropOp36
 70
     0
102
RTVSPost2010Prop37
 90
       50
102
RTVSPost2010PropOp37
 70
     0
102
RTVSPost2010Prop38
140
0.0
102
RTVSPost2010PropOp38
 70
     0
102
RTVSPost2010Prop39
140
1.0
102
RTVSPost2010PropOp39
 70
     0
102
RTVSPost2010Prop40
 90
        0
102
RTVSPost2010PropOp40
 70
     0
102
RTVSPost2010Prop41ColorIndex
 90
       18
102
RTVSPost2010Prop41ColorRGB
 90
        0
102
RTVSPost2010PropOp41
 70
     0
102
RTVSPost2010Prop42
 90
       50
102
RTVSPost2010PropOp42
 70
     0
102
RTVSPost2010Prop43
 90
        3
102
RTVSPost2010PropOp43
 70
     0
102
RTVSPost2010Prop44ColorIndex
 90
        5
102
RTVSPost2010Prop44ColorRGB
 90
      255
102
RTVSPost2010PropOp44
 70
     0
102
RTVSPost2010Prop45
280
     0
102
RTVSPost2010PropOp45
 70
     0
102
RTVSPost2010Prop46
 90
       50
102
RTVSPost2010PropOp46
 70
     0
102
RTVSPost2010Prop47
 90
       50
102
RTVSPost2010PropOp47
 70
     0
102
RTVSPost2010Prop48
 90
       50
102
RTVSPost2010PropOp48
 70
     0
102
RTVSPost2010Prop49
280
     0
102
RTVSPost2010PropOp49
 70
     0
102
RTVSPost2010Prop50
 90
       50
102
RTVSPost2010PropOp50
 70
     0
102
RTVSPost2010Prop51ColorIndex
 90
      256
102
RTVSPost2010Prop51ColorRGB
 90
-16777216
102
RTVSPost2010PropOp51
 70
     0
102
RTVSPost2010Prop52
140
1.0
102
RTVSPost2010PropOp52
 70
     0
102
RTVSPost2010Prop53
 90
        2
102
RTVSPost2010PropOp53
 70
     0
102
RTVSPost2010Prop54
  1
strokes_ogs.tif
102
RTVSPost2010PropOp54
 70
     0
102
RTVSPost2010Prop55
280
     0
102
RTVSPost2010PropOp55
 70
     0
102
RTVSPost2010Prop56
140
1.0
102
RTVSPost2010PropOp56
 70
     0
102
RTVSPost2010Prop57
140
1.0
102
RTVSPost2010PropOp57
 70
     0
  0
XRECORD
  5
13F
102
{ACAD_REACTORS
330
13E
102
}
330
13E
100
AcDbXrecord
280
     1
102
RTVSPropertyOp0
 70
     1
102
RTVSPropertyOp1
 70
     1
102
RTVSPropertyOp2
 70
     1
102
RTVSPropertyOp3
 70
     1
102
RTVSPropertyOp4
 70
     1
102
RTVSPropertyOp5
 70
     1
102
RTVSPropertyOp6
 70
     1
102
RTVSPropertyOp7
 70
     1
102
RTVSPropertyOp8
 70
     1
102
RTVSPropertyOp9
 70
     1
102
RTVSPropertyOp10
 70
     1
102
RTVSPropertyOp11
 70
     1
102
RTVSPropertyOp12
 70
     1
102
RTVSPropertyOp13
 70
     1
102
RTVSPropertyOp14
 70
     1
102
RTVSPropertyOp15
 70
     1
102
RTVSPropertyOp16
 70
     1
102
RTVSPropertyOp17
 70
     1
102
RTVSPropertyOp18
 70
     1
102
RTVSPropertyOp19
 70
     1
102
RTVSPropertyOp20
 70
     1
102
RTVSPropertyOp21
 70
     1
102
RTVSPropertyOp22
 70
     1
102
RTVSPropertyOp23
 70
     1
102
RTVSPropertyOp24
 70
     1
102
RTVSPropertyOp25
 70
     1
102
RTVSPropertyOp26
 70
     1
102
RTVSPropertyOp27
 70
     1
102
RTVSPropertyOp28
 70
     1
102
RTVSPropertyOp29
 70
     1
102
RTVSPropertyOp30
 70
     1
102
RTVSPropertyOp31
 70
     1
102
RTVSPropertyOp32
 70
     1
102
RTVSPropertyOp33
 70
     1
102
RTVSPropertyOp34
 70
     1
102
RTVSPropertyOp35
 70
     1
102
RTVSPropertyOp36
 70
     1
102
RTVSPropertyOp37
 70
     1
102
RTVSPropertyOp38
 70
     1
102
RTVSPropertyOp39
 70
     1
102
RTVSPropertyOp40
 70
     1
102
RTVSPropertyOp41
 70
     1
102
RTVSPropertyOp42
 70
     1
102
RTVSPropertyOp43
 70
     1
102
RTVSPropertyOp44
 70
     1
102
RTVSPropertyOp45
 70
     1
102
RTVSPropertyOp46
 70
     1
102
RTVSPropertyOp47
 70
     1
102
RTVSPropertyOp48
 70
     1
102
RTVSPropertyOp49
 70
     1
102
RTVSPropertyOp50
 70
     1
102
RTVSPropertyOp51
 70
     0
102
RTVSPropertyOp52
 70
     0
102
RTVSPropertyOp53
 70
     1
102
RTVSPropertyOp54
 70
     1
102
RTVSPropertyOp55
 70
     1
102
RTVSPropertyOp56
 70
     1
102
RTVSPropertyOp57
 70
     1
102
RTVSPost2010Prop28
280
     0
102
RTVSPost2010PropOp28
 70
     1
102
RTVSPost2010Prop29
280
     1
102
RTVSPost2010PropOp29
 70
     1
102
RTVSPost2010Prop30
280
     1
102
RTVSPost2010PropOp30
 70
     1
102
RTVSPost2010Prop31
280
     0
102
RTVSPost2010PropOp31
 70
     1
102
RTVSPost2010Prop32
280
     0
102
RTVSPost2010PropOp32
 70
     1
102
RTVSPost2010Prop33
280
     0
102
RTVSPost2010PropOp33
 70
     1
102
RTVSPost2010Prop34
280
     0
102
RTVSPost2010PropOp34
 70
     1
102
RTVSPost2010Prop35
280
     0
102
RTVSPost2010PropOp35
 70
     1
102
RTVSPost2010Prop36
280
     0
102
RTVSPost2010PropOp36
 70
     1
102
RTVSPost2010Prop37
 90
       50
102
RTVSPost2010PropOp37
 70
     1
102
RTVSPost2010Prop38
140
0.0
102
RTVSPost2010PropOp38
 70
     1
102
RTVSPost2010Prop39
140
1.0
102
RTVSPost2010PropOp39
 70
     1
102
RTVSPost2010Prop40
 90
        0
102
RTVSPost2010PropOp40
 70
     1
102
RTVSPost2010Prop41ColorIndex
 90
       18
102
RTVSPost2010Prop41ColorRGB
 90
        0
102
RTVSPost2010PropOp41
 70
     1
102
RTVSPost2010Prop42
 90
       50
102
RTVSPost2010PropOp42
 70
     1
102
RTVSPost2010Prop43
 90
        3
102
RTVSPost2010PropOp43
 70
     1
102
RTVSPost2010Prop44ColorIndex
 90
        5
102
RTVSPost2010Prop44ColorRGB
 90
      255
102
RTVSPost2010PropOp44
 70
     1
102
RTVSPost2010Prop45
280
     0
102
RTVSPost2010PropOp45
 70
     1
102
RTVSPost2010Prop46
 90
       50
102
RTVSPost2010PropOp46
 70
     1
102
RTVSPost2010Prop47
 90
       50
102
RTVSPost2010PropOp47
 70
     1
102
RTVSPost2010Prop48
 90
       50
102
RTVSPost2010PropOp48
 70
     1
102
RTVSPost2010Prop49
280
     0
102
RTVSPost2010PropOp49
 70
     1
102
RTVSPost2010Prop50
 90
       50
102
RTVSPost2010PropOp50
 70
     1
102
RTVSPost2010Prop51ColorIndex
 90
      256
102
RTVSPost2010Prop51ColorRGB
 90
-16777216
102
RTVSPost2010PropOp51
 70
     0
102
RTVSPost2010Prop52
140
1.0
102
RTVSPost2010PropOp52
 70
     0
102
RTVSPost2010Prop53
 90
        2
102
RTVSPost2010PropOp53
 70
     1
102
RTVSPost2010Prop54
  1
strokes_ogs.tif
102
RTVSPost2010PropOp54
 70
     1
102
RTVSPost2010Prop55
280
     0
102
RTVSPost2010PropOp55
 70
     1
102
RTVSPost2010Prop56
140
1.0
102
RTVSPost2010PropOp56
 70
     1
102
RTVSPost2010Prop57
140
1.0
102
RTVSPost2010PropOp57
 70
     1
  0
XRECORD
  5
15D
102
{ACAD_REACTORS
330
15C
102
}
330
15C
100
AcDbXrecord
280
     1
102
RTVSPropertyOp0
 70
     1
102
RTVSPropertyOp1
 70
     1
102
RTVSPropertyOp2
 70
     1
102
RTVSPropertyOp3
 70
     1
102
RTVSPropertyOp4
 70
     1
102
RTVSPropertyOp5
 70
     1
102
RTVSPropertyOp6
 70
     1
102
RTVSPropertyOp7
 70
     1
102
RTVSPropertyOp8
 70
     1
102
RTVSPropertyOp9
 70
     1
102
RTVSPropertyOp10
 70
     1
102
RTVSPropertyOp11
 70
     1
102
RTVSPropertyOp12
 70
     1
102
RTVSPropertyOp13
 70
     1
102
RTVSPropertyOp14
 70
     1
102
RTVSPropertyOp15
 70
     1
102
RTVSPropertyOp16
 70
     1
102
RTVSPropertyOp17
 70
     1
102
RTVSPropertyOp18
 70
     1
102
RTVSPropertyOp19
 70
     1
102
RTVSPropertyOp20
 70
     1
102
RTVSPropertyOp21
 70
     1
102
RTVSPropertyOp22
 70
     1
102
RTVSPropertyOp23
 70
     1
102
RTVSPropertyOp24
 70
     1
102
RTVSPropertyOp25
 70
     1
102
RTVSPropertyOp26
 70
     1
102
RTVSPropertyOp27
 70
     1
102
RTVSPropertyOp28
 70
     1
102
RTVSPropertyOp29
 70
     1
102
RTVSPropertyOp30
 70
     1
102
RTVSPropertyOp31
 70
     1
102
RTVSPropertyOp32
 70
     1
102
RTVSPropertyOp33
 70
     1
102
RTVSPropertyOp34
 70
     1
102
RTVSPropertyOp35
 70
     1
102
RTVSPropertyOp36
 70
     1
102
RTVSPropertyOp37
 70
     1
102
RTVSPropertyOp38
 70
     1
102
RTVSPropertyOp39
 70
     1
102
RTVSPropertyOp40
 70
     1
102
RTVSPropertyOp41
 70
     1
102
RTVSPropertyOp42
 70
     1
102
RTVSPropertyOp43
 70
     1
102
RTVSPropertyOp44
 70
     1
102
RTVSPropertyOp45
 70
     1
102
RTVSPropertyOp46
 70
     1
102
RTVSPropertyOp47
 70
     1
102
RTVSPropertyOp48
 70
     1
102
RTVSPropertyOp49
 70
     1
102
RTVSPropertyOp50
 70
     1
102
RTVSPropertyOp51
 70
     0
102
RTVSPropertyOp52
 70
     0
102
RTVSPropertyOp53
 70
     1
102
RTVSPropertyOp54
 70
     1
102
RTVSPropertyOp55
 70
     1
102
RTVSPropertyOp56
 70
     1
102
RTVSPropertyOp57
 70
     1
102
RTVSPost2010Prop28
280
     0
102
RTVSPost2010PropOp28
 70
     1
102
RTVSPost2010Prop29
280
     1
102
RTVSPost2010PropOp29
 70
     1
102
RTVSPost2010Prop30
280
     1
102
RTVSPost2010PropOp30
 70
     1
102
RTVSPost2010Prop31
280
     0
102
RTVSPost2010PropOp31
 70
     1
102
RTVSPost2010Prop32
280
     0
102
RTVSPost2010PropOp32
 70
     1
102
RTVSPost2010Prop33
280
     0
102
RTVSPost2010PropOp33
 70
     1
102
RTVSPost2010Prop34
280
     0
102
RTVSPost2010PropOp34
 70
     1
102
RTVSPost2010Prop35
280
     0
102
RTVSPost2010PropOp35
 70
     1
102
RTVSPost2010Prop36
280
     0
102
RTVSPost2010PropOp36
 70
     1
102
RTVSPost2010Prop37
 90
       50
102
RTVSPost2010PropOp37
 70
     1
102
RTVSPost2010Prop38
140
0.0
102
RTVSPost2010PropOp38
 70
     1
102
RTVSPost2010Prop39
140
1.0
102
RTVSPost2010PropOp39
 70
     1
102
RTVSPost2010Prop40
 90
        0
102
RTVSPost2010PropOp40
 70
     1
102
RTVSPost2010Prop41ColorIndex
 90
       18
102
RTVSPost2010Prop41ColorRGB
 90
        0
102
RTVSPost2010PropOp41
 70
     1
102
RTVSPost2010Prop42
 90
       50
102
RTVSPost2010PropOp42
 70
     1
102
RTVSPost2010Prop43
 90
        3
102
RTVSPost2010PropOp43
 70
     1
102
RTVSPost2010Prop44ColorIndex
 90
        5
102
RTVSPost2010Prop44ColorRGB
 90
      255
102
RTVSPost2010PropOp44
 70
     1
102
RTVSPost2010Prop45
280
     0
102
RTVSPost2010PropOp45
 70
     1
102
RTVSPost2010Prop46
 90
       50
102
RTVSPost2010PropOp46
 70
     1
102
RTVSPost2010Prop47
 90
       50
102
RTVSPost2010PropOp47
 70
     1
102
RTVSPost2010Prop48
 90
       50
102
RTVSPost2010PropOp48
 70
     1
102
RTVSPost2010Prop49
280
     0
102
RTVSPost2010PropOp49
 70
     1
102
RTVSPost2010Prop50
 90
       50
102
RTVSPost2010PropOp50
 70
     1
102
RTVSPost2010Prop51ColorIndex
 90
      256
102
RTVSPost2010Prop51ColorRGB
 90
-16777216
102
RTVSPost2010PropOp51
 70
     0
102
RTVSPost2010Prop52
140
1.0
102
RTVSPost2010PropOp52
 70
     0
102
RTVSPost2010Prop53
 90
        2
102
RTVSPost2010PropOp53
 70
     1
102
RTVSPost2010Prop54
  1
strokes_ogs.tif
102
RTVSPost2010PropOp54
 70
     1
102
RTVSPost2010Prop55
280
     0
102
RTVSPost2010PropOp55
 70
     1
102
RTVSPost2010Prop56
140
1.0
102
RTVSPost2010PropOp56
 70
     1
102
RTVSPost2010Prop57
140
1.0
102
RTVSPost2010PropOp57
 70
     1
  0
XRECORD
  5
15B
102
{ACAD_REACTORS
330
15A
102
}
330
15A
100
AcDbXrecord
280
     1
102
RTVSPropertyOp0
 70
     1
102
RTVSPropertyOp1
 70
     1
102
RTVSPropertyOp2
 70
     1
102
RTVSPropertyOp3
 70
     1
102
RTVSPropertyOp4
 70
     1
102
RTVSPropertyOp5
 70
     1
102
RTVSPropertyOp6
 70
     1
102
RTVSPropertyOp7
 70
     1
102
RTVSPropertyOp8
 70
     1
102
RTVSPropertyOp9
 70
     1
102
RTVSPropertyOp10
 70
     1
102
RTVSPropertyOp11
 70
     1
102
RTVSPropertyOp12
 70
     1
102
RTVSPropertyOp13
 70
     1
102
RTVSPropertyOp14
 70
     1
102
RTVSPropertyOp15
 70
     1
102
RTVSPropertyOp16
 70
     1
102
RTVSPropertyOp17
 70
     1
102
RTVSPropertyOp18
 70
     1
102
RTVSPropertyOp19
 70
     1
102
RTVSPropertyOp20
 70
     1
102
RTVSPropertyOp21
 70
     1
102
RTVSPropertyOp22
 70
     1
102
RTVSPropertyOp23
 70
     1
102
RTVSPropertyOp24
 70
     1
102
RTVSPropertyOp25
 70
     1
102
RTVSPropertyOp26
 70
     1
102
RTVSPropertyOp27
 70
     1
102
RTVSPropertyOp28
 70
     1
102
RTVSPropertyOp29
 70
     1
102
RTVSPropertyOp30
 70
     1
102
RTVSPropertyOp31
 70
     1
102
RTVSPropertyOp32
 70
     1
102
RTVSPropertyOp33
 70
     1
102
RTVSPropertyOp34
 70
     1
102
RTVSPropertyOp35
 70
     1
102
RTVSPropertyOp36
 70
     1
102
RTVSPropertyOp37
 70
     1
102
RTVSPropertyOp38
 70
     1
102
RTVSPropertyOp39
 70
     1
102
RTVSPropertyOp40
 70
     1
102
RTVSPropertyOp41
 70
     1
102
RTVSPropertyOp42
 70
     1
102
RTVSPropertyOp43
 70
     1
102
RTVSPropertyOp44
 70
     1
102
RTVSPropertyOp45
 70
     1
102
RTVSPropertyOp46
 70
     1
102
RTVSPropertyOp47
 70
     1
102
RTVSPropertyOp48
 70
     1
102
RTVSPropertyOp49
 70
     1
102
RTVSPropertyOp50
 70
     1
102
RTVSPropertyOp51
 70
     0
102
RTVSPropertyOp52
 70
     0
102
RTVSPropertyOp53
 70
     1
102
RTVSPropertyOp54
 70
     1
102
RTVSPropertyOp55
 70
     1
102
RTVSPropertyOp56
 70
     1
102
RTVSPropertyOp57
 70
     1
102
RTVSPost2010Prop28
280
     0
102
RTVSPost2010PropOp28
 70
     1
102
RTVSPost2010Prop29
280
     1
102
RTVSPost2010PropOp29
 70
     1
102
RTVSPost2010Prop30
280
     1
102
RTVSPost2010PropOp30
 70
     1
102
RTVSPost2010Prop31
280
     0
102
RTVSPost2010PropOp31
 70
     1
102
RTVSPost2010Prop32
280
     0
102
RTVSPost2010PropOp32
 70
     1
102
RTVSPost2010Prop33
280
     0
102
RTVSPost2010PropOp33
 70
     1
102
RTVSPost2010Prop34
280
     0
102
RTVSPost2010PropOp34
 70
     1
102
RTVSPost2010Prop35
280
     0
102
RTVSPost2010PropOp35
 70
     1
102
RTVSPost2010Prop36
280
     0
102
RTVSPost2010PropOp36
 70
     1
102
RTVSPost2010Prop37
 90
       50
102
RTVSPost2010PropOp37
 70
     1
102
RTVSPost2010Prop38
140
0.0
102
RTVSPost2010PropOp38
 70
     1
102
RTVSPost2010Prop39
140
1.0
102
RTVSPost2010PropOp39
 70
     1
102
RTVSPost2010Prop40
 90
        0
102
RTVSPost2010PropOp40
 70
     1
102
RTVSPost2010Prop41ColorIndex
 90
       18
102
RTVSPost2010Prop41ColorRGB
 90
        0
102
RTVSPost2010PropOp41
 70
     1
102
RTVSPost2010Prop42
 90
       50
102
RTVSPost2010PropOp42
 70
     1
102
RTVSPost2010Prop43
 90
        3
102
RTVSPost2010PropOp43
 70
     1
102
RTVSPost2010Prop44ColorIndex
 90
        5
102
RTVSPost2010Prop44ColorRGB
 90
      255
102
RTVSPost2010PropOp44
 70
     1
102
RTVSPost2010Prop45
280
     0
102
RTVSPost2010PropOp45
 70
     1
102
RTVSPost2010Prop46
 90
       50
102
RTVSPost2010PropOp46
 70
     1
102
RTVSPost2010Prop47
 90
       50
102
RTVSPost2010PropOp47
 70
     1
102
RTVSPost2010Prop48
 90
       50
102
RTVSPost2010PropOp48
 70
     1
102
RTVSPost2010Prop49
280
     0
102
RTVSPost2010PropOp49
 70
     1
102
RTVSPost2010Prop50
 90
       50
102
RTVSPost2010PropOp50
 70
     1
102
RTVSPost2010Prop51ColorIndex
 90
      256
102
RTVSPost2010Prop51ColorRGB
 90
-16777216
102
RTVSPost2010PropOp51
 70
     0
102
RTVSPost2010Prop52
140
1.0
102
RTVSPost2010PropOp52
 70
     0
102
RTVSPost2010Prop53
 90
        2
102
RTVSPost2010PropOp53
 70
     1
102
RTVSPost2010Prop54
  1
strokes_ogs.tif
102
RTVSPost2010PropOp54
 70
     1
102
RTVSPost2010Prop55
280
     0
102
RTVSPost2010PropOp55
 70
     1
102
RTVSPost2010Prop56
140
1.0
102
RTVSPost2010PropOp56
 70
     1
102
RTVSPost2010Prop57
140
1.0
102
RTVSPost2010PropOp57
 70
     1
  0
XRECORD
  5
155
102
{ACAD_REACTORS
330
154
102
}
330
154
100
AcDbXrecord
280
     1
102
RTVSPropertyOp0
 70
     1
102
RTVSPropertyOp1
 70
     1
102
RTVSPropertyOp2
 70
     1
102
RTVSPropertyOp3
 70
     1
102
RTVSPropertyOp4
 70
     1
102
RTVSPropertyOp5
 70
     1
102
RTVSPropertyOp6
 70
     1
102
RTVSPropertyOp7
 70
     1
102
RTVSPropertyOp8
 70
     1
102
RTVSPropertyOp9
 70
     1
102
RTVSPropertyOp10
 70
     1
102
RTVSPropertyOp11
 70
     1
102
RTVSPropertyOp12
 70
     1
102
RTVSPropertyOp13
 70
     1
102
RTVSPropertyOp14
 70
     1
102
RTVSPropertyOp15
 70
     1
102
RTVSPropertyOp16
 70
     1
102
RTVSPropertyOp17
 70
     1
102
RTVSPropertyOp18
 70
     1
102
RTVSPropertyOp19
 70
     1
102
RTVSPropertyOp20
 70
     1
102
RTVSPropertyOp21
 70
     1
102
RTVSPropertyOp22
 70
     1
102
RTVSPropertyOp23
 70
     1
102
RTVSPropertyOp24
 70
     1
102
RTVSPropertyOp25
 70
     1
102
RTVSPropertyOp26
 70
     1
102
RTVSPropertyOp27
 70
     1
102
RTVSPropertyOp28
 70
     1
102
RTVSPropertyOp29
 70
     1
102
RTVSPropertyOp30
 70
     1
102
RTVSPropertyOp31
 70
     1
102
RTVSPropertyOp32
 70
     1
102
RTVSPropertyOp33
 70
     1
102
RTVSPropertyOp34
 70
     1
102
RTVSPropertyOp35
 70
     1
102
RTVSPropertyOp36
 70
     1
102
RTVSPropertyOp37
 70
     1
102
RTVSPropertyOp38
 70
     1
102
RTVSPropertyOp39
 70
     1
102
RTVSPropertyOp40
 70
     1
102
RTVSPropertyOp41
 70
     1
102
RTVSPropertyOp42
 70
     1
102
RTVSPropertyOp43
 70
     1
102
RTVSPropertyOp44
 70
     1
102
RTVSPropertyOp45
 70
     1
102
RTVSPropertyOp46
 70
     1
102
RTVSPropertyOp47
 70
     1
102
RTVSPropertyOp48
 70
     1
102
RTVSPropertyOp49
 70
     1
102
RTVSPropertyOp50
 70
     1
102
RTVSPropertyOp51
 70
     0
102
RTVSPropertyOp52
 70
     0
102
RTVSPropertyOp53
 70
     1
102
RTVSPropertyOp54
 70
     1
102
RTVSPropertyOp55
 70
     1
102
RTVSPropertyOp56
 70
     1
102
RTVSPropertyOp57
 70
     1
102
RTVSPost2010Prop28
280
     0
102
RTVSPost2010PropOp28
 70
     1
102
RTVSPost2010Prop29
280
     1
102
RTVSPost2010PropOp29
 70
     1
102
RTVSPost2010Prop30
280
     1
102
RTVSPost2010PropOp30
 70
     1
102
RTVSPost2010Prop31
280
     0
102
RTVSPost2010PropOp31
 70
     1
102
RTVSPost2010Prop32
280
     0
102
RTVSPost2010PropOp32
 70
     1
102
RTVSPost2010Prop33
280
     0
102
RTVSPost2010PropOp33
 70
     1
102
RTVSPost2010Prop34
280
     0
102
RTVSPost2010PropOp34
 70
     1
102
RTVSPost2010Prop35
280
     0
102
RTVSPost2010PropOp35
 70
     1
102
RTVSPost2010Prop36
280
     0
102
RTVSPost2010PropOp36
 70
     1
102
RTVSPost2010Prop37
 90
       50
102
RTVSPost2010PropOp37
 70
     1
102
RTVSPost2010Prop38
140
0.0
102
RTVSPost2010PropOp38
 70
     1
102
RTVSPost2010Prop39
140
1.0
102
RTVSPost2010PropOp39
 70
     1
102
RTVSPost2010Prop40
 90
        0
102
RTVSPost2010PropOp40
 70
     1
102
RTVSPost2010Prop41ColorIndex
 90
       18
102
RTVSPost2010Prop41ColorRGB
 90
        0
102
RTVSPost2010PropOp41
 70
     1
102
RTVSPost2010Prop42
 90
       50
102
RTVSPost2010PropOp42
 70
     1
102
RTVSPost2010Prop43
 90
        3
102
RTVSPost2010PropOp43
 70
     1
102
RTVSPost2010Prop44ColorIndex
 90
        5
102
RTVSPost2010Prop44ColorRGB
 90
      255
102
RTVSPost2010PropOp44
 70
     1
102
RTVSPost2010Prop45
280
     0
102
RTVSPost2010PropOp45
 70
     1
102
RTVSPost2010Prop46
 90
       50
102
RTVSPost2010PropOp46
 70
     1
102
RTVSPost2010Prop47
 90
       50
102
RTVSPost2010PropOp47
 70
     1
102
RTVSPost2010Prop48
 90
       50
102
RTVSPost2010PropOp48
 70
     1
102
RTVSPost2010Prop49
280
     0
102
RTVSPost2010PropOp49
 70
     1
102
RTVSPost2010Prop50
 90
       50
102
RTVSPost2010PropOp50
 70
     1
102
RTVSPost2010Prop51ColorIndex
 90
      256
102
RTVSPost2010Prop51ColorRGB
 90
-16777216
102
RTVSPost2010PropOp51
 70
     0
102
RTVSPost2010Prop52
140
1.0
102
RTVSPost2010PropOp52
 70
     0
102
RTVSPost2010Prop53
 90
        2
102
RTVSPost2010PropOp53
 70
     1
102
RTVSPost2010Prop54
  1
strokes_ogs.tif
102
RTVSPost2010PropOp54
 70
     1
102
RTVSPost2010Prop55
280
     0
102
RTVSPost2010PropOp55
 70
     1
102
RTVSPost2010Prop56
140
1.0
102
RTVSPost2010PropOp56
 70
     1
102
RTVSPost2010Prop57
140
1.0
102
RTVSPost2010PropOp57
 70
     1
  0
XRECORD
  5
157
102
{ACAD_REACTORS
330
156
102
}
330
156
100
AcDbXrecord
280
     1
102
RTVSPropertyOp0
 70
     1
102
RTVSPropertyOp1
 70
     1
102
RTVSPropertyOp2
 70
     1
102
RTVSPropertyOp3
 70
     1
102
RTVSPropertyOp4
 70
     1
102
RTVSPropertyOp5
 70
     1
102
RTVSPropertyOp6
 70
     1
102
RTVSPropertyOp7
 70
     1
102
RTVSPropertyOp8
 70
     1
102
RTVSPropertyOp9
 70
     1
102
RTVSPropertyOp10
 70
     1
102
RTVSPropertyOp11
 70
     1
102
RTVSPropertyOp12
 70
     1
102
RTVSPropertyOp13
 70
     1
102
RTVSPropertyOp14
 70
     1
102
RTVSPropertyOp15
 70
     1
102
RTVSPropertyOp16
 70
     1
102
RTVSPropertyOp17
 70
     1
102
RTVSPropertyOp18
 70
     1
102
RTVSPropertyOp19
 70
     1
102
RTVSPropertyOp20
 70
     1
102
RTVSPropertyOp21
 70
     1
102
RTVSPropertyOp22
 70
     1
102
RTVSPropertyOp23
 70
     1
102
RTVSPropertyOp24
 70
     1
102
RTVSPropertyOp25
 70
     1
102
RTVSPropertyOp26
 70
     1
102
RTVSPropertyOp27
 70
     1
102
RTVSPropertyOp28
 70
     1
102
RTVSPropertyOp29
 70
     1
102
RTVSPropertyOp30
 70
     1
102
RTVSPropertyOp31
 70
     1
102
RTVSPropertyOp32
 70
     1
102
RTVSPropertyOp33
 70
     1
102
RTVSPropertyOp34
 70
     1
102
RTVSPropertyOp35
 70
     1
102
RTVSPropertyOp36
 70
     1
102
RTVSPropertyOp37
 70
     1
102
RTVSPropertyOp38
 70
     1
102
RTVSPropertyOp39
 70
     1
102
RTVSPropertyOp40
 70
     1
102
RTVSPropertyOp41
 70
     1
102
RTVSPropertyOp42
 70
     1
102
RTVSPropertyOp43
 70
     1
102
RTVSPropertyOp44
 70
     1
102
RTVSPropertyOp45
 70
     1
102
RTVSPropertyOp46
 70
     1
102
RTVSPropertyOp47
 70
     1
102
RTVSPropertyOp48
 70
     1
102
RTVSPropertyOp49
 70
     1
102
RTVSPropertyOp50
 70
     1
102
RTVSPropertyOp51
 70
     0
102
RTVSPropertyOp52
 70
     0
102
RTVSPropertyOp53
 70
     1
102
RTVSPropertyOp54
 70
     1
102
RTVSPropertyOp55
 70
     1
102
RTVSPropertyOp56
 70
     1
102
RTVSPropertyOp57
 70
     1
102
RTVSPost2010Prop28
280
     0
102
RTVSPost2010PropOp28
 70
     1
102
RTVSPost2010Prop29
280
     1
102
RTVSPost2010PropOp29
 70
     1
102
RTVSPost2010Prop30
280
     1
102
RTVSPost2010PropOp30
 70
     1
102
RTVSPost2010Prop31
280
     0
102
RTVSPost2010PropOp31
 70
     1
102
RTVSPost2010Prop32
280
     0
102
RTVSPost2010PropOp32
 70
     1
102
RTVSPost2010Prop33
280
     0
102
RTVSPost2010PropOp33
 70
     1
102
RTVSPost2010Prop34
280
     0
102
RTVSPost2010PropOp34
 70
     1
102
RTVSPost2010Prop35
280
     0
102
RTVSPost2010PropOp35
 70
     1
102
RTVSPost2010Prop36
280
     0
102
RTVSPost2010PropOp36
 70
     1
102
RTVSPost2010Prop37
 90
       50
102
RTVSPost2010PropOp37
 70
     1
102
RTVSPost2010Prop38
140
0.0
102
RTVSPost2010PropOp38
 70
     1
102
RTVSPost2010Prop39
140
1.0
102
RTVSPost2010PropOp39
 70
     1
102
RTVSPost2010Prop40
 90
        0
102
RTVSPost2010PropOp40
 70
     1
102
RTVSPost2010Prop41ColorIndex
 90
       18
102
RTVSPost2010Prop41ColorRGB
 90
        0
102
RTVSPost2010PropOp41
 70
     1
102
RTVSPost2010Prop42
 90
       50
102
RTVSPost2010PropOp42
 70
     1
102
RTVSPost2010Prop43
 90
        3
102
RTVSPost2010PropOp43
 70
     1
102
RTVSPost2010Prop44ColorIndex
 90
        5
102
RTVSPost2010Prop44ColorRGB
 90
      255
102
RTVSPost2010PropOp44
 70
     1
102
RTVSPost2010Prop45
280
     0
102
RTVSPost2010PropOp45
 70
     1
102
RTVSPost2010Prop46
 90
       50
102
RTVSPost2010PropOp46
 70
     1
102
RTVSPost2010Prop47
 90
       50
102
RTVSPost2010PropOp47
 70
     1
102
RTVSPost2010Prop48
 90
       50
102
RTVSPost2010PropOp48
 70
     1
102
RTVSPost2010Prop49
280
     0
102
RTVSPost2010PropOp49
 70
     1
102
RTVSPost2010Prop50
 90
       50
102
RTVSPost2010PropOp50
 70
     1
102
RTVSPost2010Prop51ColorIndex
 90
      256
102
RTVSPost2010Prop51ColorRGB
 90
-16777216
102
RTVSPost2010PropOp51
 70
     0
102
RTVSPost2010Prop52
140
1.0
102
RTVSPost2010PropOp52
 70
     0
102
RTVSPost2010Prop53
 90
        2
102
RTVSPost2010PropOp53
 70
     1
102
RTVSPost2010Prop54
  1
strokes_ogs.tif
102
RTVSPost2010PropOp54
 70
     1
102
RTVSPost2010Prop55
280
     0
102
RTVSPost2010PropOp55
 70
     1
102
RTVSPost2010Prop56
140
1.0
102
RTVSPost2010PropOp56
 70
     1
102
RTVSPost2010Prop57
140
1.0
102
RTVSPost2010PropOp57
 70
     1
  0
XRECORD
  5
147
102
{ACAD_REACTORS
330
146
102
}
330
146
100
AcDbXrecord
280
     1
102
RTVSPropertyOp0
 70
     1
102
RTVSPropertyOp1
 70
     1
102
RTVSPropertyOp2
 70
     1
102
RTVSPropertyOp3
 70
     1
102
RTVSPropertyOp4
 70
     1
102
RTVSPropertyOp5
 70
     1
102
RTVSPropertyOp6
 70
     1
102
RTVSPropertyOp7
 70
     1
102
RTVSPropertyOp8
 70
     1
102
RTVSPropertyOp9
 70
     1
102
RTVSPropertyOp10
 70
     1
102
RTVSPropertyOp11
 70
     1
102
RTVSPropertyOp12
 70
     1
102
RTVSPropertyOp13
 70
     1
102
RTVSPropertyOp14
 70
     1
102
RTVSPropertyOp15
 70
     1
102
RTVSPropertyOp16
 70
     1
102
RTVSPropertyOp17
 70
     1
102
RTVSPropertyOp18
 70
     1
102
RTVSPropertyOp19
 70
     1
102
RTVSPropertyOp20
 70
     1
102
RTVSPropertyOp21
 70
     1
102
RTVSPropertyOp22
 70
     1
102
RTVSPropertyOp23
 70
     1
102
RTVSPropertyOp24
 70
     1
102
RTVSPropertyOp25
 70
     1
102
RTVSPropertyOp26
 70
     1
102
RTVSPropertyOp27
 70
     1
102
RTVSPropertyOp28
 70
     1
102
RTVSPropertyOp29
 70
     1
102
RTVSPropertyOp30
 70
     1
102
RTVSPropertyOp31
 70
     1
102
RTVSPropertyOp32
 70
     1
102
RTVSPropertyOp33
 70
     1
102
RTVSPropertyOp34
 70
     1
102
RTVSPropertyOp35
 70
     1
102
RTVSPropertyOp36
 70
     1
102
RTVSPropertyOp37
 70
     1
102
RTVSPropertyOp38
 70
     1
102
RTVSPropertyOp39
 70
     1
102
RTVSPropertyOp40
 70
     1
102
RTVSPropertyOp41
 70
     1
102
RTVSPropertyOp42
 70
     1
102
RTVSPropertyOp43
 70
     1
102
RTVSPropertyOp44
 70
     1
102
RTVSPropertyOp45
 70
     1
102
RTVSPropertyOp46
 70
     1
102
RTVSPropertyOp47
 70
     1
102
RTVSPropertyOp48
 70
     1
102
RTVSPropertyOp49
 70
     1
102
RTVSPropertyOp50
 70
     1
102
RTVSPropertyOp51
 70
     0
102
RTVSPropertyOp52
 70
     0
102
RTVSPropertyOp53
 70
     1
102
RTVSPropertyOp54
 70
     1
102
RTVSPropertyOp55
 70
     1
102
RTVSPropertyOp56
 70
     1
102
RTVSPropertyOp57
 70
     1
102
RTVSPost2010Prop28
280
     0
102
RTVSPost2010PropOp28
 70
     1
102
RTVSPost2010Prop29
280
     1
102
RTVSPost2010PropOp29
 70
     1
102
RTVSPost2010Prop30
280
     1
102
RTVSPost2010PropOp30
 70
     1
102
RTVSPost2010Prop31
280
     0
102
RTVSPost2010PropOp31
 70
     1
102
RTVSPost2010Prop32
280
     0
102
RTVSPost2010PropOp32
 70
     1
102
RTVSPost2010Prop33
280
     0
102
RTVSPost2010PropOp33
 70
     1
102
RTVSPost2010Prop34
280
     0
102
RTVSPost2010PropOp34
 70
     1
102
RTVSPost2010Prop35
280
     0
102
RTVSPost2010PropOp35
 70
     1
102
RTVSPost2010Prop36
280
     0
102
RTVSPost2010PropOp36
 70
     1
102
RTVSPost2010Prop37
 90
       50
102
RTVSPost2010PropOp37
 70
     1
102
RTVSPost2010Prop38
140
0.0
102
RTVSPost2010PropOp38
 70
     1
102
RTVSPost2010Prop39
140
1.0
102
RTVSPost2010PropOp39
 70
     1
102
RTVSPost2010Prop40
 90
        0
102
RTVSPost2010PropOp40
 70
     1
102
RTVSPost2010Prop41ColorIndex
 90
       18
102
RTVSPost2010Prop41ColorRGB
 90
        0
102
RTVSPost2010PropOp41
 70
     1
102
RTVSPost2010Prop42
 90
       50
102
RTVSPost2010PropOp42
 70
     1
102
RTVSPost2010Prop43
 90
        3
102
RTVSPost2010PropOp43
 70
     1
102
RTVSPost2010Prop44ColorIndex
 90
        5
102
RTVSPost2010Prop44ColorRGB
 90
      255
102
RTVSPost2010PropOp44
 70
     1
102
RTVSPost2010Prop45
280
     0
102
RTVSPost2010PropOp45
 70
     1
102
RTVSPost2010Prop46
 90
       50
102
RTVSPost2010PropOp46
 70
     1
102
RTVSPost2010Prop47
 90
       50
102
RTVSPost2010PropOp47
 70
     1
102
RTVSPost2010Prop48
 90
       50
102
RTVSPost2010PropOp48
 70
     1
102
RTVSPost2010Prop49
280
     0
102
RTVSPost2010PropOp49
 70
     1
102
RTVSPost2010Prop50
 90
       50
102
RTVSPost2010PropOp50
 70
     1
102
RTVSPost2010Prop51ColorIndex
 90
      256
102
RTVSPost2010Prop51ColorRGB
 90
-16777216
102
RTVSPost2010PropOp51
 70
     0
102
RTVSPost2010Prop52
140
1.0
102
RTVSPost2010PropOp52
 70
     0
102
RTVSPost2010Prop53
 90
        2
102
RTVSPost2010PropOp53
 70
     1
102
RTVSPost2010Prop54
  1
strokes_ogs.tif
102
RTVSPost2010PropOp54
 70
     1
102
RTVSPost2010Prop55
280
     0
102
RTVSPost2010PropOp55
 70
     1
102
RTVSPost2010Prop56
140
1.0
102
RTVSPost2010PropOp56
 70
     1
102
RTVSPost2010Prop57
140
1.0
102
RTVSPost2010PropOp57
 70
     1
  0
XRECORD
  5
139
102
{ACAD_REACTORS
330
138
102
}
330
138
100
AcDbXrecord
280
     1
102
RTVSPropertyOp0
 70
     1
102
RTVSPropertyOp1
 70
     1
102
RTVSPropertyOp2
 70
     1
102
RTVSPropertyOp3
 70
     1
102
RTVSPropertyOp4
 70
     1
102
RTVSPropertyOp5
 70
     1
102
RTVSPropertyOp6
 70
     1
102
RTVSPropertyOp7
 70
     1
102
RTVSPropertyOp8
 70
     1
102
RTVSPropertyOp9
 70
     1
102
RTVSPropertyOp10
 70
     1
102
RTVSPropertyOp11
 70
     1
102
RTVSPropertyOp12
 70
     1
102
RTVSPropertyOp13
 70
     1
102
RTVSPropertyOp14
 70
     1
102
RTVSPropertyOp15
 70
     1
102
RTVSPropertyOp16
 70
     1
102
RTVSPropertyOp17
 70
     1
102
RTVSPropertyOp18
 70
     1
102
RTVSPropertyOp19
 70
     1
102
RTVSPropertyOp20
 70
     1
102
RTVSPropertyOp21
 70
     1
102
RTVSPropertyOp22
 70
     1
102
RTVSPropertyOp23
 70
     1
102
RTVSPropertyOp24
 70
     1
102
RTVSPropertyOp25
 70
     1
102
RTVSPropertyOp26
 70
     1
102
RTVSPropertyOp27
 70
     1
102
RTVSPropertyOp28
 70
     1
102
RTVSPropertyOp29
 70
     1
102
RTVSPropertyOp30
 70
     1
102
RTVSPropertyOp31
 70
     1
102
RTVSPropertyOp32
 70
     1
102
RTVSPropertyOp33
 70
     1
102
RTVSPropertyOp34
 70
     1
102
RTVSPropertyOp35
 70
     1
102
RTVSPropertyOp36
 70
     1
102
RTVSPropertyOp37
 70
     1
102
RTVSPropertyOp38
 70
     1
102
RTVSPropertyOp39
 70
     1
102
RTVSPropertyOp40
 70
     1
102
RTVSPropertyOp41
 70
     1
102
RTVSPropertyOp42
 70
     1
102
RTVSPropertyOp43
 70
     1
102
RTVSPropertyOp44
 70
     1
102
RTVSPropertyOp45
 70
     1
102
RTVSPropertyOp46
 70
     1
102
RTVSPropertyOp47
 70
     1
102
RTVSPropertyOp48
 70
     1
102
RTVSPropertyOp49
 70
     1
102
RTVSPropertyOp50
 70
     1
102
RTVSPropertyOp51
 70
     0
102
RTVSPropertyOp52
 70
     0
102
RTVSPropertyOp53
 70
     1
102
RTVSPropertyOp54
 70
     1
102
RTVSPropertyOp55
 70
     1
102
RTVSPropertyOp56
 70
     1
102
RTVSPropertyOp57
 70
     1
102
RTVSPost2010Prop28
280
     0
102
RTVSPost2010PropOp28
 70
     1
102
RTVSPost2010Prop29
280
     1
102
RTVSPost2010PropOp29
 70
     1
102
RTVSPost2010Prop30
280
     1
102
RTVSPost2010PropOp30
 70
     1
102
RTVSPost2010Prop31
280
     0
102
RTVSPost2010PropOp31
 70
     1
102
RTVSPost2010Prop32
280
     0
102
RTVSPost2010PropOp32
 70
     1
102
RTVSPost2010Prop33
280
     0
102
RTVSPost2010PropOp33
 70
     1
102
RTVSPost2010Prop34
280
     0
102
RTVSPost2010PropOp34
 70
     1
102
RTVSPost2010Prop35
280
     0
102
RTVSPost2010PropOp35
 70
     1
102
RTVSPost2010Prop36
280
     0
102
RTVSPost2010PropOp36
 70
     1
102
RTVSPost2010Prop37
 90
       50
102
RTVSPost2010PropOp37
 70
     1
102
RTVSPost2010Prop38
140
0.0
102
RTVSPost2010PropOp38
 70
     1
102
RTVSPost2010Prop39
140
1.0
102
RTVSPost2010PropOp39
 70
     1
102
RTVSPost2010Prop40
 90
        0
102
RTVSPost2010PropOp40
 70
     1
102
RTVSPost2010Prop41ColorIndex
 90
       18
102
RTVSPost2010Prop41ColorRGB
 90
        0
102
RTVSPost2010PropOp41
 70
     1
102
RTVSPost2010Prop42
 90
       50
102
RTVSPost2010PropOp42
 70
     1
102
RTVSPost2010Prop43
 90
        3
102
RTVSPost2010PropOp43
 70
     1
102
RTVSPost2010Prop44ColorIndex
 90
        5
102
RTVSPost2010Prop44ColorRGB
 90
      255
102
RTVSPost2010PropOp44
 70
     1
102
RTVSPost2010Prop45
280
     0
102
RTVSPost2010PropOp45
 70
     1
102
RTVSPost2010Prop46
 90
       50
102
RTVSPost2010PropOp46
 70
     1
102
RTVSPost2010Prop47
 90
       50
102
RTVSPost2010PropOp47
 70
     1
102
RTVSPost2010Prop48
 90
       50
102
RTVSPost2010PropOp48
 70
     1
102
RTVSPost2010Prop49
280
     0
102
RTVSPost2010PropOp49
 70
     1
102
RTVSPost2010Prop50
 90
       50
102
RTVSPost2010PropOp50
 70
     1
102
RTVSPost2010Prop51ColorIndex
 90
      256
102
RTVSPost2010Prop51ColorRGB
 90
-16777216
102
RTVSPost2010PropOp51
 70
     0
102
RTVSPost2010Prop52
140
1.0
102
RTVSPost2010PropOp52
 70
     0
102
RTVSPost2010Prop53
 90
        2
102
RTVSPost2010PropOp53
 70
     1
102
RTVSPost2010Prop54
  1
strokes_ogs.tif
102
RTVSPost2010PropOp54
 70
     1
102
RTVSPost2010Prop55
280
     0
102
RTVSPost2010PropOp55
 70
     1
102
RTVSPost2010Prop56
140
1.0
102
RTVSPost2010PropOp56
 70
     1
102
RTVSPost2010Prop57
140
1.0
102
RTVSPost2010PropOp57
 70
     1
  0
XRECORD
  5
159
102
{ACAD_REACTORS
330
158
102
}
330
158
100
AcDbXrecord
280
     1
102
RTVSPropertyOp0
 70
     1
102
RTVSPropertyOp1
 70
     1
102
RTVSPropertyOp2
 70
     1
102
RTVSPropertyOp3
 70
     1
102
RTVSPropertyOp4
 70
     1
102
RTVSPropertyOp5
 70
     1
102
RTVSPropertyOp6
 70
     1
102
RTVSPropertyOp7
 70
     1
102
RTVSPropertyOp8
 70
     1
102
RTVSPropertyOp9
 70
     1
102
RTVSPropertyOp10
 70
     1
102
RTVSPropertyOp11
 70
     1
102
RTVSPropertyOp12
 70
     1
102
RTVSPropertyOp13
 70
     1
102
RTVSPropertyOp14
 70
     1
102
RTVSPropertyOp15
 70
     1
102
RTVSPropertyOp16
 70
     1
102
RTVSPropertyOp17
 70
     1
102
RTVSPropertyOp18
 70
     1
102
RTVSPropertyOp19
 70
     1
102
RTVSPropertyOp20
 70
     1
102
RTVSPropertyOp21
 70
     1
102
RTVSPropertyOp22
 70
     1
102
RTVSPropertyOp23
 70
     1
102
RTVSPropertyOp24
 70
     1
102
RTVSPropertyOp25
 70
     1
102
RTVSPropertyOp26
 70
     1
102
RTVSPropertyOp27
 70
     1
102
RTVSPropertyOp28
 70
     1
102
RTVSPropertyOp29
 70
     1
102
RTVSPropertyOp30
 70
     1
102
RTVSPropertyOp31
 70
     1
102
RTVSPropertyOp32
 70
     1
102
RTVSPropertyOp33
 70
     1
102
RTVSPropertyOp34
 70
     1
102
RTVSPropertyOp35
 70
     1
102
RTVSPropertyOp36
 70
     1
102
RTVSPropertyOp37
 70
     1
102
RTVSPropertyOp38
 70
     1
102
RTVSPropertyOp39
 70
     1
102
RTVSPropertyOp40
 70
     1
102
RTVSPropertyOp41
 70
     1
102
RTVSPropertyOp42
 70
     1
102
RTVSPropertyOp43
 70
     1
102
RTVSPropertyOp44
 70
     1
102
RTVSPropertyOp45
 70
     1
102
RTVSPropertyOp46
 70
     1
102
RTVSPropertyOp47
 70
     1
102
RTVSPropertyOp48
 70
     1
102
RTVSPropertyOp49
 70
     1
102
RTVSPropertyOp50
 70
     1
102
RTVSPropertyOp51
 70
     0
102
RTVSPropertyOp52
 70
     0
102
RTVSPropertyOp53
 70
     1
102
RTVSPropertyOp54
 70
     1
102
RTVSPropertyOp55
 70
     1
102
RTVSPropertyOp56
 70
     1
102
RTVSPropertyOp57
 70
     1
102
RTVSPost2010Prop28
280
     0
102
RTVSPost2010PropOp28
 70
     1
102
RTVSPost2010Prop29
280
     1
102
RTVSPost2010PropOp29
 70
     1
102
RTVSPost2010Prop30
280
     1
102
RTVSPost2010PropOp30
 70
     1
102
RTVSPost2010Prop31
280
     0
102
RTVSPost2010PropOp31
 70
     1
102
RTVSPost2010Prop32
280
     0
102
RTVSPost2010PropOp32
 70
     1
102
RTVSPost2010Prop33
280
     0
102
RTVSPost2010PropOp33
 70
     1
102
RTVSPost2010Prop34
280
     0
102
RTVSPost2010PropOp34
 70
     1
102
RTVSPost2010Prop35
280
     0
102
RTVSPost2010PropOp35
 70
     1
102
RTVSPost2010Prop36
280
     0
102
RTVSPost2010PropOp36
 70
     1
102
RTVSPost2010Prop37
 90
       50
102
RTVSPost2010PropOp37
 70
     1
102
RTVSPost2010Prop38
140
0.0
102
RTVSPost2010PropOp38
 70
     1
102
RTVSPost2010Prop39
140
1.0
102
RTVSPost2010PropOp39
 70
     1
102
RTVSPost2010Prop40
 90
        0
102
RTVSPost2010PropOp40
 70
     1
102
RTVSPost2010Prop41ColorIndex
 90
       18
102
RTVSPost2010Prop41ColorRGB
 90
        0
102
RTVSPost2010PropOp41
 70
     1
102
RTVSPost2010Prop42
 90
       50
102
RTVSPost2010PropOp42
 70
     1
102
RTVSPost2010Prop43
 90
        3
102
RTVSPost2010PropOp43
 70
     1
102
RTVSPost2010Prop44ColorIndex
 90
        5
102
RTVSPost2010Prop44ColorRGB
 90
      255
102
RTVSPost2010PropOp44
 70
     1
102
RTVSPost2010Prop45
280
     0
102
RTVSPost2010PropOp45
 70
     1
102
RTVSPost2010Prop46
 90
       50
102
RTVSPost2010PropOp46
 70
     1
102
RTVSPost2010Prop47
 90
       50
102
RTVSPost2010PropOp47
 70
     1
102
RTVSPost2010Prop48
 90
       50
102
RTVSPost2010PropOp48
 70
     1
102
RTVSPost2010Prop49
280
     0
102
RTVSPost2010PropOp49
 70
     1
102
RTVSPost2010Prop50
 90
       50
102
RTVSPost2010PropOp50
 70
     1
102
RTVSPost2010Prop51ColorIndex
 90
      256
102
RTVSPost2010Prop51ColorRGB
 90
-16777216
102
RTVSPost2010PropOp51
 70
     0
102
RTVSPost2010Prop52
140
1.0
102
RTVSPost2010PropOp52
 70
     0
102
RTVSPost2010Prop53
 90
        2
102
RTVSPost2010PropOp53
 70
     1
102
RTVSPost2010Prop54
  1
strokes_ogs.tif
102
RTVSPost2010PropOp54
 70
     1
102
RTVSPost2010Prop55
280
     0
102
RTVSPost2010PropOp55
 70
     1
102
RTVSPost2010Prop56
140
1.0
102
RTVSPost2010PropOp56
 70
     1
102
RTVSPost2010Prop57
140
1.0
102
RTVSPost2010PropOp57
 70
     1
  0
ENDSEC
  0
EOF
